Sheila On 7 - Seberapa Pantas Chords & Tabs

 

Seberapa Pantas Chords & Tabs

Sheila On 7 Chords & Tabs

Version: 1 Type: Tab 0 ratings
1 star 2 stars 3 stars 4 stars 5 stars
comments

Seberapa Pantas Tab

   
##################################################################################
# This file is the author's own work and represents their interpretation of the  #
# song. You may only use this file for private study, scholarship, or research.  #
##################################################################################

Judul lagu    : Seberapa pantas
Penyanyi      : Sheila on 7
Album         : 07 Des
Tabbed by     : Edy Zuraidy (bedy_22@yahoo.com)

intro

       (............clean tone...........)
|------2------2----------------------------|
|------5b7----5b7--------5p3------3---3~~--|
|------x------x------x---------x-----------|
|------------------------------------------|
|------------------------------------------|
|------------------------------------------|


 (....clean tone.........)
|------2------2--------------------|
|------5b7----5b7----------3~~-----|
|------x------x------2h4-----------|
|----------------------------------|
|----------------------------------|
|----------------------------------|


Back to :  (*)



Bm                          Bm
0o............0o............Aa............Aa.............



Solo guitar( with dist )


   Bm      D
|-----------------------------------------------------------------------|
|-----------------------------------------------------------------------|
|----7-7---7-9-9b11-r9-9p7-7---9p7~~----7-7---7-9-9b11-r9-9p7---7-9p7~~-|
|-/9-----9-------------------9-------/9-----9-----------------9---------|
|-----------------------------------------------------------------------|
|-----------------------------------------------------------------------|


   Em      Bm
|-----------------------------------------------------------------------|
|--------------------------------------------10--12--12~~---------------|
|-9b11-r9-9b11-r9-9b11-r9-9b-r9-9p7---7-9/11----------------------------|
|-----------------------------------9-----------------------------------|
|-----------------------------------------------------------------------|
|-----------------------------------------------------------------------|



|-----------------------------------------------------------------------|
|-----------------------------------------------------------------------|
|-7h9p7-----7-----------------------------------------------------------|
|--------9------7h9p7---------------------------------------------------|
|------------------------9-----7/5--------5-------5~~-------------------|
|-------------------------------------7-------7-------------------------|


   G    F#mEm
|-----------------------------------------------------------------------|
|-/12~~-10~~-------------------------------------------10----10b12~~----|
|------------11~~-9~~-7~~-9b11-r9-7-----7-7---7---9/11----11------------|
|-----------------------------------9~~-----9---------------------------|
|-----------------------------------------------------------------------|
|-----------------------------------------------------------------------|

[ Tab from: http://www.guitartabs.cc/tabs/s/sheila_on_7/seberapa_pantas_tab.html ]
           Bm
|-----------------------------------------------------------------------|
|-----------------------------------------------------------------------|
|-7h9p7---7-------------------------------------------------------------|
|-------9---7h9-----7---------------------------------------------------|
|---------------7h9---9-7h9p7---5---5----7/9----------------------------|
|-----------------------------7---7----------------7~~------------------|


|----------------------------------------------------|
|----------------------------------------------------|
|----------------------------------------------------|
|--7-------7---9-9---9p7-------7---9---9~~-----------|
|------9-------------------9-------------------------|
|----------------------------------------------------|


   G   C
|-----------------------------------------------------------------------|
|------15---15--------15--------15--------15----------------------------|
|--16------------16--------16--------16--------16p14--------14----16~~\-|
|-------------------------------------------------------16--------------|
|-----------------------------------------------------------------------|
|-----------------------------------------------------------------------|


   G   C
|-----------------------------------------------------------------------|
|--------15---15--------15--------15---17---17b19---r17---17~~\---------|
|---16-------------16--------16-----------------------------------------|
|-----------------------------------------------------------------------|
|-----------------------------------------------------------------------|
|-----------------------------------------------------------------------|





G                       F#m         Em                   Bm
W0o.........0o.........W0o..........W0o.........0o......W0o.......

G                       F#m          Em                  Bm
Haa.........Aa.........Haa..........Haa.........Aa......A.........





      Fill 1(with dist)                     Fill 2(with dist)

|-------------10---------------|  |--------------10---------------|
|-12-12-10-12----12-10-12-12~~-|  |-12-12-10--12----12-10-12-10~~-|
|------------------------------|  |-------------------------------|
|------------------------------|  |-------------------------------|
|------------------------------|  |-------------------------------|
|------------------------------|  |-------------------------------|


     Fill 3(clean tone)                      Fill 4(clean tone)

|-5p3--------------------------|  |-5p3---------------------------|
|-x-----5p3---5~~--------------|  |-x-----5p3---5~~---------------|
|-x-----x----------------------|  |-x-----x-----------------------|
|------------------------------|  |-------------------------------|
|------------------------------|  |-------------------------------|
|------------------------------|  |-------------------------------|


LEGEND
------

h  = hammer-on p  = pull-off
b  = bend  r  = bend release
/  = slide up   \  = slide down
[5] = harmonic x  = ghost note
~  = vibrato tr = trill
x   = ghost note



- end of Tab

Comments