Sheila On 7 - Bila Kau Tak Disampingku Chords & Tabs

 

Bila Kau Tak Disampingku Chords & Tabs

Sheila On 7 Chords & Tabs

Version: 1 Type: Tab 0 ratings
1 star 2 stars 3 stars 4 stars 5 stars
comments

Bila Kau Tak Disampingku Tab

   
##################################################################################
# This file is the author's own work and represents their interpretation of the  #
# song. You may only use this file for private study, scholarship, or research.  #
##################################################################################

Judul lagu    : Bila Kau Tak Disampingku
Penyanyi      : Sheila on 7
Album         : Kisah klasik untuk masa depan
Tabbed by     : Edy Zuraidy (bedy_22@hotmail.com)

index

     A5          C5
|-------------------------|
|-------------------------|
|----------------5--------|
|----7-----------5--------|
|----7-----------3--------|
|----5--------------------|

#--------------------------------------------------------------------------#


Intro :                       C      G              C

|---------------------------------------------------------------|
|------------5--8--5--------------------------------------------|
|---/5---7------------5--7--5------0--2--0----------------------|
|-------------------------------2-----------2--0----------------| 2x
|-------------------------------------------------3-------------|
|---------------------------------------------------------------|


C5    C5 C5 C5  |--mute--|       A5          A5 A5 A5
|---------------------------------------------------------------|
|---------------------------------------------------------------|
|---5--x--5--5--5-----------------------------------------------|
|---5--x--5--5--5---5--5h7--5--------7--x--x--x--7--7--7--------|
|---3--x--5--5--5--------------7--5--7--x--x--x--7--7--7--------|
|------------------------------------5--x--x--x--5--5--5--------|
[ Tab from: http://www.guitartabs.cc/tabs/s/sheila_on_7/bila_kau_tak_disampingku_tab.html ]
    C5    C5 C5 C5  |--mute--|       A5          A5 A5 A5
|---------------------------------------------------------------|
|---------------------------------------------------------------|
|---5--x--5--5--5-----------------------------------------------|
|---5--x--5--5--5---5--5h7--5--------7--x--x--x--7--7--7--------|
|---3--x--5--5--5--------------7--5--7--x--x--x--7--7--7--------|
|------------------------------------5--x--x--x--5--5--5--------|

    F                                             C
|--------8-------8-----8--------8-------8-----8----------8------|
|---7/8-----7/8-----8------7/8-----7/8-----8----------------8---|
|-------------------------------------------------9p8h9---------|
|---------------------------------------------------------------|
|---------------------------------------------------------------|
|---------------------------------------------------------------|

                            C                             C
|----------8-----8--------------------8--------8----------------|
|-------------8-----8--------------------8--------8-------------|
|---9p8h9--------------9p8--5~~--8h9--------9--------9p8--5~~---|
|---------------------------------------------------------------|
|---------------------------------------------------------------|
|---------------------------------------------------------------|

                                          C
|---------8---10^r---10^r---10^r---10^r---8~~-------------------|
|---/10---------------------------------------------------------|
|---------------------------------------------------------------|
|---------------------------------------------------------------|
|---------------------------------------------------------------|
|---------------------------------------------------------------|


Back to :  (*)

  D               C#m Bm
  Bila kau tak disampingku
  D               C#m Bm   F#m(fill)
  Bila kau tak disampingku


fill


|-----2h4-------------|
|---------------------|
|---------------------|
|---------------------|
|---------------------|
|---------------------|


LEGEND
------

h  = hammer-on   p  = pull-off
^  = bend        r  = bend release
/  = slide up
~  = vibrato
x  = ghost note


-end of tab.

Comments