Sheila Divine - Like A Criminal Chords & Tabs

 

Like A Criminal Chords & Tabs

Sheila Divine Chords & Tabs

Version: 2 Type: Tab 0 ratings
1 star 2 stars 3 stars 4 stars 5 stars
comments

Like A Criminal Tab

   
----------------------------------------------------------------------------
			     LIKE A CRIMINAL - the sheila divine
----------------------------------------------------------------------------
Tabbed by: Taelman
Email: Zee_germans17@hotmail.com

Tuning: standard tuning
[ Tab from: http://www.guitartabs.cc/tabs/s/sheila_divine/like_a_criminal_tab_ver_2.html ]
e|----X--X-----X-X-----X---X-------X--X-----X-X--X--X----7-7-X-X-7-7-X-X-7-7-|
B|----X--X-----X-X-----X---X-------X--X-----X-X--X--X----7-7-X-X-7-7-X-X-7-7-|
G|----X--X-----X-X-----X---X-------X--X-----X-X--X--X----8-8-X-X-8-8-X-X-8-8-|
D|----X--X-----X-X-----X---X-------X--X-----X-X--X--X----9-9-X-X-9-9-X-X-9-9-|
A|----9--9-----9-9-----9---9-------9--9-----9-9--9--9----9-9-X-X-9-9-X-X-9-9-|
E|---10--10----10-10---10--10------9--9-----9-9--9--9----7-7-X-X-7-7-X-X-7-7-|

e|-X-X-7-7-----------------------------------------------------------------|
B|-X-X-7-7-----------------------------------------------------------------|
G|-X-X-8-8-----------------------------------------------------------------|
D|-X-X-9-9-----------------------------------------------------------------|
A|-X-X-9-9-----------------------------------------------------------------|
E|-X-X-7-7-----------------------------------------------------------------|


dat eist keirels, de leute dermee! an ast nie zjuste es, ip udder mulle!

| /  slide up
| \  slide down
| h  hammer-on
| p  pull-off
| ~  vibrato
| +  harmonic
| x  Mute note
============================================================================
Comments