Sheila Divine - Hum Chords & Tabs

 

Hum Chords & Tabs

Sheila Divine Chords & Tabs

Version: 4 Type: Tab 0 ratings
1 star 2 stars 3 stars 4 stars 5 stars
comments

Hum Tab

   
Song: Hum
Artist: Shelia Divine
Album: The New Parade

Ok OK OK here we go the right was I tabbed it out a litthe while ago
but I messed up one chord but i figured I would add the Lyrics also
well have fun with this......

Intro Play This 2x

   E5II    E5/D#  C#5   B5
e-------------------------------------------|
b-------------------------------------------|
g--9-9-9---9-9---6-6-6---4-4-4--let---------|
d--9-9-9---9-9---6-6-6---4-4-4--ring--------|
a--7-7-7---6-6---4-4-4---2-2-2--------------|
E-------------------------------------------|

Well In my mounth it's a hurricane
E5II E5/D#  C#5   B5
Just let    it    out

Well on the raido it's a bonch of fakes
E5II E5/D#  C#5   B5
Just let    it    out

For Chours Play thse are the chords
The x's mean stop it ring

   A5       B5       A5       B5        C#5    B5
e------------------------------------------------|
b------------------------------------------------|
g--2-2-2----4-4-4----2-2-2----4-4-4-----66x66x4--|
d--2-2-2----4-4-4----2-2-2----4-4-4-----66x66x4--|
a--0-0-0----2-2-2----0-0-0----2-2-2-----44x44x2--|
e------------------------------------------------|
[ Tab from: http://www.guitartabs.cc/tabs/s/sheila_divine/hum_tab_ver_4.html ]
A5        B5
Hum along regreat it
A5             B5
You alone will get it
C#5       C#5      B5
God don't make the laws    C#5 C#5    C#5 C#%  B5

Play Intro Once the do the same for verse 2 and chours

V.2
When I get board I use novicane
To numb the sound
I*'m the 6 spice the heavyweight
I bring the frowns

Hum along regreat it
You alone would get it
God don't make the laws   (repeat once)

Bridge (strum each chord once and let ring)
E5II                E5/D#
I'm the heavyweight and i don't know why
C#5                  B5
I have the 6 sent to make the girls cry
E5II                E5/D#
I'm the heavyweight and i don't know why
C#5                  B5
I have the 6 sent to make the girls cry
E5II             E5/D#
I want ameri you I want american
C#5             B5
To leave Fading waithing for again
E5II             E5/D#
I want ameri you I want american
C#5             B5
To leave Fading waithing for again

Chours 2x
Play chours 1x without singing the
God don't make the laws then end

Have fun with it and if you need to Email me at Hvensgte@msn.com
if you need anything or have a commet... Dean
Comments