Sheila Divine - Hum Chords & Tabs

 

Hum Chords & Tabs

Sheila Divine Chords & Tabs

Version: 3 Type: Tab 0 ratings
1 star 2 stars 3 stars 4 stars 5 stars
comments

Hum Tab

   
ok ok ok ok I am sick of trying to find this song so I typed it out
myself. En joy

Hum By shelia divine

Bass riff in the bigging

e---------------------------------|
b---------------------------------|
g---------------------------------|
d---------------------------------|
a--0--3--5--3--0--3/5-------------|
E---------------------------------|

Chords are::
[ Tab from: http://www.guitartabs.cc/tabs/s/sheila_divine/hum_tab_ver_3.html ]
pattern 1
   E5II    D#5     C#5     B5
e--------------------------------------|
b--------------------------------------|
g--9-9-9----8-8----6-6-6---4-4---let---|
d--9-9-9----8-8----6-6-6---4-4---ring--|
a--7-7-7----6-6----4-4-4---2-2---------|
E--------------------------------------|

Pattern 2
   A5       B5        A5      B5       C#5   B5
e-----------------------------------------------|
b-----------------------------------------------|
g--2-2-2----4-4-4----2-2-2----4-4-4----66x66x4--| let
d--2-2-2----4-4-4----2-2-2----4-4-4----66x66x4--| ring
a--0-0-0----2-2-2----0-0-0----2-2-2----44x44x2--|
e-----------------------------------------------|

Progression
Intro Bass riff 1x
      Patter 1, 1x

Verse Pattern 1, 4x

Chours Pattern 2, 3x

Bridge Strum Pattern 1 4x

Enjoy email me with any commets at hvensgte@msn.com
Keep Rockin
Comments