Sheep - Unamorist Chords & Tabs

 

Unamorist Chords & Tabs

Sheep Chords & Tabs

Version: 1 Type: Tab 0 ratings
1 star 2 stars 3 stars 4 stars 5 stars
comments

Unamorist Tab

This is a great song
Tabbed by Martin Shrewsbury and Brian Tooley

intro/verse
e------------------------------------------------
b------------------------------------------------
g----------------------5-5-x---------------------
d--7-7--7-7-7-7-7-x-x--5-5-x--5-5-5-5------------
a--7-7--7-7-7-7-7-x-x--3-3-x--5-5-5-5------------
e--5-5--0-5-5-5-5-x-x------x--3-3-3-3------------

chorus
e--------------------------
b--------------------------
g--5-5---------------------
d--5-5--7-7-7-x-x----------
a--3-3--7-7-7-x-x----------
e-------5-5-5-x-x----------
[ Tab from: http://www.guitartabs.cc/tabs/s/sheep/unamorist_tab.html ]
solo (it has a sloppy sound to it)
e----------------------------------------------------------
b--15b-12----12-12-----12-----12-12-----12-12-----12----12-
g---------14b------14b----14b-------14b-------14b----14b---
d----------------------------------------------------------
a----------------------------------------------------------
e----------------------------------------------------------

e-----------------------------------------------------------
b-----------------------------------------------------------
g--14b-12----14-14s15-15-15-14----14-14s15-15-15-14---------
d---------14-------------------14-------------------14-14-14
a-----------------------------------------------------------
e-----------------------------------------------------------

e----------------------------------------------------------
b----------------------------------------------------------
g--14-14s15-15-15-14----14-14s15-15-15-14----------14b-----
d--------------------14-------------------14b-14-14--------
a----------------------------------------------------------
e----------------------------------------------------------
Comments