Shedaisy - Come Home Soon Chords & Tabs

 

Come Home Soon Chords & Tabs

Shedaisy Chords & Tabs

Version: 1 Type: Tab 0 ratings
1 star 2 stars 3 stars 4 stars 5 stars
comments

Come Home Soon Tab

   
Song: Come home soon
Artist: Shedaisy
Tabbed By: Meg42
Email: Megs4448@aol.com

this is an awesome song, and i was looking everywhere for a tab for it. i finally found
one on a country website but it wasnt perfect, so i just made some changes..

Capo on 3rd Fret


Intro:

 G               D/F#            Em7             Cadd9
e---------------|---------------|---------------|---------------|
b-----3---------|-----3---------|-------3-----3-|-------3-----3-|
a-------0---0-2-|-------2---2-0-|-----0-----0---|-----0-----0---|
g---0-----0-----|---0-----0-----|---2-----2-----|---2-----2-----|
d---------------|---------------|---------------|-3-------------|
e-3-------------|-2-------------|-0-------------|---------------|
[ Tab from: http://www.guitartabs.cc/tabs/s/shedaisy/come_home_soon_tab.html ]
 G         D/F#      Em7       Cadd9
---------|---------|---------|---------|
-----3---|-----3---|-----3---|-----3---|
-------0-|-------2-|-------0-|-------0-|  x2
---0-----|---0-----|---2-----|---2-----|
---------|---------|---------|-3-------|
-3-------|-2-------|-0-------|---------|

 G         D/F#      Em7       Cadd9
---------|---------|---------|---------|
-----3---|-----3---|-----3---|-----3---|
-------0-|-------2-|-------0-|-------0-|
---0-----|---0-----|---2-----|---2-----|
---------|---------|---------|-3-------|
-3-------|-2-------|-0-------|---------|

 G                        G
--------------------|------------------|
------3-------------|-----------3-3----|
--------0----0h2p0--|---------0-----0--|
---0------0---------|------0-----------|
--------------------|------------------|
-3------------------|-----3------------|
Comments