Shed Seven - Ocean Pie Chords & Tabs

 

Ocean Pie Chords & Tabs

Shed Seven Chords & Tabs

Version: 2 Type: Tab 0 ratings
1 star 2 stars 3 stars 4 stars 5 stars
comments

Ocean Pie Tab

   
Ocean pie intro

tabbed by keith clark
mrnicesg@blueyonder.co.uk

/ = slide
b = bend
r = release bend

[ Tab from: http://www.guitartabs.cc/tabs/s/shed_seven/ocean_pie_tab_ver_2.html ]
e----------10----------10-----------------------------------------------|
B--------------------------10-------------------------------------------|
G-----7--------9(b)------------9(r)/7--7--------------------------------|
D-----0-----------------------------------9-----7-9----7-9---7----------|
A--------------------------------------------------------------9--------|
E-----------------------------------------------------------------------|


e----------10----------10-----------------------------------------------|
B--------------------------10-------------------------------------------|
G-----7--------9(b)------------9(r)/7--7--------------------------------|
D-----0-----------------------------------9-----7-9----7-9---7----------|
A--------------------------------------------------------------9-7------|
E-----------------------------------------------------------------------|
Comments