Shed Seven - Ocean Pie Chords & Tabs

 

Ocean Pie Chords & Tabs

Shed Seven Chords & Tabs

Version: 1 Type: Tab 0 ratings
1 star 2 stars 3 stars 4 stars 5 stars
comments

Ocean Pie Tab

ARTIST:  SHED SEVEN
SONG:  OCEAN PIE (SOLO)
TRANSCRIBED BY PAUL MCCARTHY


THIS IS ONLY THE SOLO, I KNOW IT'S NOT 100% CORRECT
BUT HOPEFULLY SOMEONE WILL BE ABLE TO BUILD ON IT TO GET
THE PROPER VERSION AND THE REST OF THE SONG

KEY
H=HAMMER   P=PULL   >=SLIDE   *=LET RING OVER OTHER NOTES
B=BEND R=RELEASE BEND

E------------------------------------------------------|
A------------------------------------------------------|
D-4-2-4---4--------------------------------------------|
G-------2---2-4-2-4---4---------2-2H4---4--------------|
B-------------------3---3-3>5-3-------3---3>5-3-5-3----|
e------------------------------------------------------|

E-------------------------------------------|
A-------------------------------------------|
D-------------------------------------------|
G-------------------------------------------|
B-5-3*-----3H5P3-5-3-5-3>0------------------|
e------5-3----------------------------------|

E--------------------------------------------|
A--------------------------------------------|
D--------------------------------------------|
G-------------------------------------7------|
B->7-10-7-10-7-10-7-10-7-10-7-8-7-8-7--------|
e--------------------------------------------|

E-------------------------------------------------------------|
A-------------------------------------------------------------|
D-7-7H9-------------------------------------------------------|
G-------7-9------------------------------------7--------------|
B-----------7-10-7-10-7-10-7-10-7-10-7-8-7-8-7----------------|
e-------------------------------------------------------------|
[ Tab from: http://www.guitartabs.cc/tabs/s/shed_seven/ocean_pie_tab.html ]
E-----------------------------------------------------|
A-----------------------------------------------------|
D---------------9-----7-------------------------------|
G-9B11----7H9P7---7-9-7-------------------------------|
B------10---------------------------------------------|
e-----------------------------------------------------|


AS FOR THE REST OF THE SONG, I THINK THE MAIN RIFF GOES A BIT LIKE THIS

E------------------------------------------------|
A------------------------------------------------|
D----------------------4-2-0---------------------|
G-------------4--2-4-2---------------------------|
B-5B7---7R5-3------------------------------------|
e-----5------------------------------------------|


THEN WHEN HE SAYS "I NEED TO FEEL YOU, I KNEED TO FEEL
RIGHT THROUGH YOU" IT GOES SOMETHING LIKE THIS

E-0-2-3-3----------------------------------------|
A-------2-2-----------------2--------------------|
D-------0---0---0------0------0---0-----0--------|
G-------0-----0-----0----0------0-----0---0------|
B-------3---------3-----------------3------------|
e-------3----------------------------------------|

THEN AFTER "YOU GOT THE KEYS TO THE OCEAN"

E---------------------------------------------|
A---------------------------------------------|
D-0*------------------------------------------|
G---------------------------------------------|
B----3---------------3------------------------|
e------0-1-0-1-4-1-0--------------------------|

WELL THATS ABOUT AS GOOD AS I CAN DO.  PLEASE
SEND ANY CORRECTIONS, ADDITIONS OR GENERAL COMMENTS
OR ANY OTHER SHED SEVEN TABS TO KORINA62@AOL.COM
OR POST THEM ON THIS WEB SITE CHEERS
Comments