Shawn Mullins - Lullaby Chords & Tabs

 

Lullaby Chords & Tabs

Shawn Mullins Chords & Tabs

Version: 1 Type: Tab 0 ratings
1 star 2 stars 3 stars 4 stars 5 stars
comments

Lullaby Tab

   
Author/Artist: Shawn Mullins
Title: Lullaby
Transcribed by: Chris Arnold
Email: Chris2831@aol.com

This song has only a few main chords throughout the song. It sounds harder than 
it is. In the beginning pick with your fingers to get the sound he makes.

Intro/Verses (in order):
E-3-|-2-|---|-0-|
B-3-|-3-|-4-|-1-|
G-0-|-2-|-4-|-0-|
D-0-|-0-|-4-|-2-|
A-2-|---|-2-|-3-|
E-3-|---|---|-0-|
[ Tab from: http://www.guitartabs.cc/tabs/s/shawn_mullins/lullaby_tab.html ]
Chorus (in order):
E-3-|-2-|-0-|
B-3-|-3-|-1-|
G-0-|-2-|-0-|
D-0-|-0-|-2-|
A-2-|---|-3-|
E-3-|---|-0-|

End of chorus:
E---|----|
B---|----|
G-6-|--9-|
D-7-|-10-|
A-7-|-10-|
E-5-|--8-|

Background/solo thing (repeat):
E-10v--10v--10v-|
B---------------|
G---------------|
D---------------|
A---------------|
E---------------|

At end you hear this (I don't think
it's the guitar, but you can play it 
anyway):
E-----------------|
B-----------------|
G-9-5-9-5-9-5-9-5-|
D-----------------|
A-----------------|
E-----------------|
Comments