Shawn Mcdonald - Have You Ever Chords & Tabs

 

Have You Ever Chords & Tabs

Shawn Mcdonald Chords & Tabs

Version: 1 Type: Tab 0 ratings
1 star 2 stars 3 stars 4 stars 5 stars
comments

Have You Ever Tab

Standard tuning


INTRO (Come in this way after the chorus as well)  To start, hold down and F chord shape
without the ring finger, then hammer with the pinky.
e-1-----1h3--1-----3--/5---5-----------------------5-\3-3p1--|
B-----1----------1---------3-----------------------3-\1-1----|
G---2----------2---------------------------------------------|
D-0----------2-------------3---------------------------------|
A------------------------------------------------------------|
E------------------------------------------------------------|

e1-----1h3--1-----3---0-0h1--1-----1--|
B-----1----------1----------------1----|
G---2----------2----------------2------|
D-0----------2----------------3--------|
A--------------------------------------|
E--------------------------------------|

[ Tab from: http://www.guitartabs.cc/tabs/s/shawn_mcdonald/have_you_ever_tab.html ]
VERSE (After intro, repeat several times)
e-1-----1h3--1-----3--/5---5-----------------------5-\3-3p1--|
B-----1----------1---------3-----------------------3-\1-1----|
G---2----------2---------------------------------------------|
D-0----------2-------------3---------------------------------|
A------------------------------------------------------------|
E------------------------------------------------------------|

CHORUS   Bar the 7th fret up to the D string with your index finger and use your pinky 
ring finger
on the 8th fret, then just slide those two as indicated below.
e--5---/8--8------8p77------7h8---3------3--/5---5--------|
B--5---/8--8---8-----------8-------3----3----/5---------5--|
G-------------7-----------------------2--------------2-----|(then repeat)
D----------7-------------7---------2--------------3--------|
A----------------------------------------------------------|
E----------------------------------------------------------|

Hope you enjoy it!
Comments