Shawn Lee - Ill Be Fucking You This Xmas Chords & Tabs

 

Ill Be Fucking You This Xmas Chords & Tabs

Shawn Lee Chords & Tabs

Version: 1 Type: Tab 0 ratings
1 star 2 stars 3 stars 4 stars 5 stars
comments

Ill Be Fucking You This Xmas Tab

   
Shawn Lee - I'll Be Fucking You This Xmas.
Tabbed By: Putrushkah
EMail: putrushkah@tutopia.com


I'll Be Fucking You This Xmas.
Shawn Lee (1998)

I'm 95% sure that this tab is right...
I've never seen a tab of this great fuking Xmas song, 
so come on (cuz it's never too late):

Chords used:

     EADGBe 
C    x32010
E    022100
Am   x02210
F    133211
Dm/A x00231
G    320033  

Intro (Drums, Santa's voice)
Verses 1 & 2

Gtr. 1 Acoustic.
   Fig. 1 
   C                E                Am               Am       G
   /   / // // / /  /   / // // / /  /   / // // / /  /   / // // / / 

Gtr. 2 Elec. c/trem. eff. (Let ring Troughuot)
e|-0----------------0----------------0--------------------------------|
B|-1----------------0----------------1--------------------------------|
G|-0----------------1----------------2-------5h7-5--------------------|
D|-2----------------2----------------2---------------7p5-7------------|
A|-3----------------2----------------0--------------------------------|
E|------------------0-------------------------------------------------|
   
   C                E                Am               F
   /   / // // / /  /   / // // / /  /   / // // / /  /   / // // / / 

e|-0----------------0----------------0-------------------1------------|
B|-1----------------0----------------1---------------------1----------|
G|-0----------------1----------------2-----------------------2--------|
D|-2----------------2----------------2--------------------------------|
A|-3----------------2----------------0--------------------------------|
E|------------------0-------------------------------------------------|

   Dm/A             G                Am               F
   /   / // // / /  /   / // // / /  /   / // // / /  /   / // // / / 

e|-1---1----------------3-----------------------------1---------------|
B|-3-----3----------------3---------------------------1---------------|
G|-2-------2----------------0-------------------------2---------------|
D|-0---------0----------------------------------------3---------------|
A|-0------------------------------------------------------------------|
E|--------------------------------------------------------------------|
 
                                                           End Fig. 1
   F                G                C                G
   /   / // // / /  /   / // // / /  /   / // // / /  /   / // // / / 

e|-1----------------3----------------0----------------3---------------|
B|-1----------------3----------------1----------------3---------------|
G|-2----------------0----------------0----------------0---------------|
D|-3----------------0----------------2----------------0---------------|
A|-3----------------2----------------3----------------2---------------|
E|-1----------------3---------------------------------3---------------|

Solo  (Gtr. 1 w/ fig. 1)

Gtr. 3 (Semiclean tone) (Let ring troughaout)
 
e|--------------------------------|--------------------------------|
B|--------------------------------|--------------------------------|
G|--------------------------------|--------------------------------|
D|--------------------------------|--------------------------------|
A|2s3---------------------2-3-3s5-|(5)---------------5s7-----2s3---|
E|--------------------------------|--------------------------------|

e|--------------------------------|--------------------------------|
B|--------------------------------|--------------------------------|
G|--------------------------------|--------------------------------|
D|--------------------------------|--------------------------------|
A|----0---------------------------|--------------------------------|
E|------------------1s3-----3s5---|(5)-----------------------------|

e|--------------------------------|--------------------------------|
B|--------------------------------|--------------------------------|
G|--------------------------------|--------------------------------|
D|--------------------------------|--------------------------------|
A|2s3---------------------2-3-3s5-|(5)---------------5s7-----5s7---|
E|--------------------------------|--------------------------------|

e|--------------------------------|--------------------------------|
B|--------------------------------|--------------------------------|
G|--------------------------------|--------------------------------|
D|--------------------------------|--------------------------------|
A|5s3-----------3h5---3---2p0-----|--------------------------------|
E|----------------------------1---|(1)-----------------------------|

e|--------------------------------|--------------------------------|
B|--------------------------------|--------------------------------|
G|--------------------------------|--------------------------------|
D|--------------------------------|--------------------------------|
A|3s5-----5-----5-5---2s3---0h2---|(2)-0-------------5s7-----3s5---|
E|--------------------------------|------3-------------------------|
         
e|--------------------------------|--------------------------------|
B|--------------------------------|--------------------------------|
G|--------------------------------|--------------------------------|
D|--------------------------------|--------------------------------|
A|--5s7-------3-------------------|--------------------------------|
E|----------------------------1---|(1)-----------------------------|

e|--------------------------------|--------------------------------|
B|--------------------------------|--------------------------------|
G|--------------------------------|--------------------------------|
D|--------------------------------|--------------------------------|
A|2s3--3---------3---3/5---0h2----|(2)-0-----------------------3p0-|
E|--------------------------------|------3-------------3-----3-----|

e|--------------------------------|--------------------------------|
B|--------------------------------|--------------------------------|
G|--------------------0--0h2------|--------------------------------|
D|----------------2---------------|----------------5-3---2---0-----|
A|3-------3-----3-----------------|------------3---------------3-0-|
E|----------------------------3---|(3)-3---------------------------|

Verses 3 & 4

Gtr. 1
   C                E                Am               Am       G 
   /   / // // / /  /   / // // / /  /   / // // / /  /   / // // / / 
Gtr. 2
e|-0----------------0----------------0--------------------------------|
B|-1----------------0----------------1--------------------------------|
G|-0----------------1----------------2-------5h7-5--------------------|
D|-2----------------2----------------2---------------7p5-7------------|
A|-3----------------2----------------0--------------------------------|
E|------------------0-------------------------------------------------|
[ Tab from: http://www.guitartabs.cc/tabs/s/shawn_lee/ill_be_fucking_you_this_xmas_tab.html ]
Gtr. 3
e|--------------------------------------------------------------------|
B|--------------------------------------------------------------------|
G|--------------------------------------------------------------------|
D|--------------------------------------------------------------------|
A|-3------------------------------------------------------------------|
E|--------------------------------------------------------------------|

   C                E                Am               F
   /   / // // / /  /   / // // / /  /   / // // / /  /   / // // / / 

e|-0----------------0----------------0-------------------1------------|
B|-1----------------0----------------1---------------------1----------|
G|-0----------------1----------------2-----------------------2--------|
D|-2----------------2----------------2--------------------------------|
A|-3----------------2----------------0--------------------------------|
E|------------------0-------------------------------------------------|

                                                         1/2
e|--------------------------------------------------------------------|
G|-------------------------------------------------------3------------|
G|--------------------------------------------------------------------|
D|--------------------------------------------------------------------|
A|------------2-3-3s5-------------------------------------------------|
E|--------------------------------------------------------------------|

   Dm/A             G                Am               F
   /   / // // / /  /   / // // / /  /   / // // / /  /   / // // / / 

e|-1---1----------------3-----------------------------1---------------|
B|-3-----3----------------3---------------------------1---------------|
G|-2-------2----------------0-------------------------2---------------|
D|-0---------0----------------------------------------3---------------|
A|-0------------------------------------------------------------------|
E|--------------------------------------------------------------------|

                1/2             1/2               1/2
e|---3-3-3-3-3-3-----3-3-3-3-3-3-----3-3-3-3-3-3-3-----3-3-3-3-3-3-3-3|
G|1s3-3-3-3-3-3-3-1s3-3-3-3-3-3-3-1s3-3-3-3-3-3-3-3-1s3-3-3-3-3-3-3-3-|
G|--------------------------------------------------------------------|
D|--------------------------------------------------------------------|
A|--------------------------------------------------------------------|
E|--------------------------------------------------------------------|
 
   F                G                C                G
   /   / // // / /  /   / // // / /  /   / // // / /  /   / // // / / 

e|-1----------------3----------------0----------------3---------------|
B|-1----------------3----------------1----------------3---------------|
G|-2----------------0----------------0----------------0---------------|
D|-3----------------0----------------2----------------0---------------|
A|-3----------------2----------------3----------------2---------------|
E|-1----------------3---------------------------------3---------------|

   1/2     1/2     1/2     1/2     1/2     1/2     1/2     1/2
e|--------------------------------------------------------------------|
B|-3--X-3--3--X-3--3--X-3--3--X-3--3--X-3--3--X-3--3--X-3--3--X-3-----|
G|--------------------------------------------------------------------|
D|--------------------------------------------------------------------|
A|--------------------------------------------------------------------|
E|--------------------------------------------------------------------|

   C                E                Am               Am       G
   /   / // // / /  /   / // // / /  /   / // // / /  /   / // // / / 

e|-0----------------0----------------0--------------------------------|
B|-1----------------0----------------1--------------------------------|
G|-0----------------1----------------2-------5h7-5--------------------|
D|-2----------------2----------------2---------------7p5-7------------|
A|-3----------------2----------------0--------------------------------|
E|------------------0-------------------------------------------------|

   C                E                Am               F
   /   / // // / /  /   / // // / /  /   / // // / /  /   / // // / / 

e|-0----------------0----------------0-------------------1------------|
B|-1----------------0----------------1---------------------1----------|
G|-0----------------1----------------2-----------------------2--------|
D|-2----------------2----------------2--------------------------------|
A|-3----------------2----------------0--------------------------------|
E|------------------0-------------------------------------------------|

                                                         1/2
e|--------------------------------------------------------------------|
G|-------------------------------------------------------3------------|
G|--------------------------------------------------------------------|
D|--------------------------------------------------------------------|
A|------------2-3-3s5-------------------------------------------------|
E|--------------------------------------------------------------------|

   Dm/A             G                Am               F
   /   / // // / /  /   / // // / /  /   / // // / /  /   / // // / / 

e|-1---1----------------3-----------------------------1---------------|
B|-3-----3----------------3---------------------------1---------------|
G|-2-------2----------------0-------------------------2---------------|
D|-0---------0----------------------------------------3---------------|
A|-0------------------------------------------------------------------|
E|--------------------------------------------------------------------|

Gtr. 3          1/2             1/2               1/2
e|---3-3-3-3-3-3-----3-3-3-3-3-3-----3-3-3-3-3-3-3-----3-3-3-3-3-3-3-3|
G|1s3-3-3-3-3-3-3-1s3-3-3-3-3-3-3-1s3-3-3-3-3-3-3-3-1s3-3-3-3-3-3-3-3-|
G|--------------------------------------------------------------------|
D|--------------------------------------------------------------------|
A|--------------------------------------------------------------------|
E|--------------------------------------------------------------------|
 
   F                G                C                G
   /   / // // / /  /   / // // / /  /   / // // / /  /   / // // / / 

e|-1----------------3----------------0----------------3---------------|
B|-1----------------3----------------1----------------3---------------|
G|-2----------------0----------------0----------------0---------------|
D|-3----------------0----------------2----------------0---------------|
A|-3----------------2----------------3----------------2---------------|
E|-1----------------3---------------------------------3---------------|

   1/2     1/2     1/2     1/2     1/2     1/2     1/2     1/2
e|--------------------------------------------------------------------|
B|-3--X-3--3--X-3--3--X-3--3--X-3--3--X-3--3--X-3--3--X-3--3--X-3-----|
G|--------------------------------------------------------------------|
D|--------------------------------------------------------------------|
A|--------------------------------------------------------------------|
E|--------------------------------------------------------------------|


Outro
Gtr. 1
   C
   /
Gtr. 2
e|-0---------|
B|-1---------|
G|-0---------|
D|-2---------|
A|-3---------|
E|-----------|

Gtr. 3
e|-14s17-----|
B|-----------|
G|-----------|
D|-----------|
A|-----------|
E|-----------|

Comments, corrections, mail me:

putrushkah@tutopia.com
Comments