Shane Green - Break Out Of Exile Chords & Tabs

 

Break Out Of Exile Chords & Tabs

Shane Green Chords & Tabs

Version: 1 Type: Bass Tab 1 rating
1 star 2 stars 3 stars 4 stars 5 stars
comments

Break Out Of Exile Bass Tab

Break Out Of Exile (Bass)
This is a lege of a song 
tabed by Blackwacko
Intro
E|-9/3\9------7-7------5-5-5-5-5--------7-7-------5-5----------|    Repeat x2 (2 Times lead and rhythm)
A---------7-7-----5-5----------------7-7------5-5----------------|
D|-------------------------------------------------------------------|
G|-------------------------------------------------------------------|



Bridge

E|-5-5-5--5-5-5--7-7-7--7-7-7|
A|---------------------------------|
D|---------------------------------|
G|---------------------------------

Main Riff

E|---------5-5-5--7-7-7---------|   Repeat x3    |-5-5-5--5-5-5--7-7-7--7-7-7|  Repeat all x2
A|-5-5-5-----------------7-7-7--|    Then          |---------------------------------|
D|---------------------------------|                      |---------------------------------|
G|---------------------------------|                      |---------------------------------|


Chorus

E|---------------------5-5-5-5-5-5---------------------3-3-3-3-3-3-3-3|      Repeat x2
A|-7-7-7-7-7-7-7-------------------5-5-5-5-5-5-5-5-------------------|
D|--------------------------------------------------------------------------|
G|--------------------------------------------------------------------------|


Chorus Part II

E|-3-3-3--3-3/5|
A----------------|
D|----------------|
G|----------------|


Bridge

E|------7-7------5-5-5-5-5-5------7-7------5-5-5-5--|------7-7------5-5-5-5----|
A|-7-7-------------------------7-7------5-5------------|--7-7-----5-5--------------|
D|--------------------------------------------------------|-----------------------------|
G|--------------------------------------------------------|-----------------------------|


Bridge Part II

E|-5-5-5--5-5-5--7-7-7--7-7-7|
A|--------------------------------|
D|--------------------------------|
G|--------------------------------|




Main Riff
[ Tab from: http://www.guitartabs.cc/tabs/s/shane_green/break_out_of_exile_btab.html ]
E|---------5-5-5--7-7-7---------|  Repeat x2         |-5-5-5-5-5-5-5-5--7-7-7-7-7-7-7-7| Repeat all x2
A|-5-5-5-----------------7-7-7-|    Then                |----------------------------------------|
D|--------------------------------|                           |----------------------------------------|
G|--------------------------------|                          |-----------------------------------------|





Chorus

E|---------------------5-5-5-5-5-5-5-5---------------------3-3-3-3-3-3-3-3| Repeat x2
A|-7-7-7-7-7-7-7-7---------------------5-5-5-5-5-5-5-5-------------------|
D|-------------------------------------------------------------------------------|
G|-------------------------------------------------------------------------------|



Chorus Part II 

E|-3-3-3--3-3/5|
A|---------------|
D|---------------|
G|---------------|




Bridge

E|------7-7------5-5-5-5---------7-7------5-5------5-5|------7-7------5-5-5-5----|
A|-7-7------5-5------------7-7-------7-7------5-5------|-7-7-----5-5--------------|
D|---------------------------------------------------------|-----------------------------|
G|---------------------------------------------------------|-----------------------------|


Bridge Part II

E|-5-5-5--5-5-5--7-7-7--7-7-7|
A|--------------------------------|
D|--------------------------------|
G|--------------------------------|










Chorus  (Under Solo)

E|---------------------5-5-5-5-5-5-5-5---------------------3-3-3-3-3-3-3-3| Repeat x2
A|-7-7-7-7-7-7-7-7---------------------5-5-5-5-5-5-5-5--------------------|
D|-------------------------------------------------------------------------------|
G|-------------------------------------------------------------------------------|


E|-3-3-3--3/5|
A|------------|
D|------------|
G|------------|


Chorus 

E|---------------------5-5-5-5-5-5---------------------3-3-3-3-3-3-3-3|
A|-7-7-7-7-7-7-7-7----------------7-7-7-7-7-7-7-7--------------------|
D|---------------------------------------------------------------------------|
G|---------------------------------------------------------------------------|

Repeat x2




End

E|-3-3-3--3-X-5^^^^^^^^^^^^^^^^^^^^^^^^^^^^^^^^^^^^^^^^^^^^^^^^^^^^^\0|
A|------------------------------------------------------------------------------------------|
D|------------------------------------------------------------------------------------------|
G|------------------------------------------------------------------------------------------|




Legend

X= Muffled Strings
/ =  Slide Up
\ = Slide Down
H= Hammer On
P= Pull Off
BU= Bend Upwards
^^^ =Vibrato
Comments