Shane Bernard - Psalm 13 Chords & Tabs

 

Psalm 13 Chords & Tabs

Shane Bernard Chords & Tabs

Version: 1 Type: Tab 0 ratings
1 star 2 stars 3 stars 4 stars 5 stars
comments

Psalm 13 Tab

   
Author/Artist: Shane Barnard
Title: Psalm 13
Album: Psalms


Riff 1 (intro)
----------------7^7^7^7^7^7^7^7^---------------5^5^5^5^5^5^5^5^---------------|
------------------------------------------------------------------------------|
-----5-4---5-4-----------------------5-4---5-4--------------------------------|
-----5-5-----------------------------5-5--------------------------------------|
------------------------------------------------------------------------------|
-1/5-----------------------------1/5------------------------------------------|


Riff 2 (played during the verses and after the chorus)
-----------------------------------------------------5^5^---------------------|
------------------------------------------------------------------------------|
-----5-4---2-2-----5-4---2-2-----5-4---2-2------5-4---------------------------|
-----5-5---2-2-----5-5---2-2-----5-5---2-2------5-5---------------------------|
------------------------------------------------------------------------------|
-1/5-----------1/5-----------1/5------------1/5-------------------------------|

[ Tab from: http://www.guitartabs.cc/tabs/s/shane_bernard/psalm_13_tab.html ]
Verse 1 (play riff no. 2)
How long O Lord will You forget me
F
how long O Lord will You hide
E                   back to riff 2
Hide Your face from me

How long must I wrestle with me
F
And everyday have sorrow in my heart
E            back to riff 2, then F, E
Sorrow in my heart

Chorus:
Am	    G
I will wait on You
Am          G
I will wait on You
Am          G      Am  G
I will wait on You
Am	    G
I will wait on You
Am          G
I will wait on You
Am          G      Am  G  E
I will wait on You


Verse 2 (riff 2):
Look on me Lord and answer me
Give my eyes light or I will sleep in death
I will sleep in death

My enemies say "I will overcome Him"
And my foes rejoice even when I fall
I don't want to fall

Bridge:
F	   G			   F
For I will trust in Your unfailing love
G                   F
My heart rejoices in Your salvation
G           F
I will sing to the Lord
G
For He has been good to me
Comments