Shamrock - Alipin Chords & Tabs

 

Alipin Chords & Tabs

Shamrock Chords & Tabs

Version: 3 Type: Tab

Alipin Tab

eto po ung lyrics at ung adlib. love song po to kya for sure magugustuhan nyo. nais ko 
pong pasalamatan ang mga sumusunod

Rommel, Izad, Jet, Jemay, Jayvee, Chano, Lloyd at xempre si Lord..

adlib:
[ Tab from: http://www.guitartabs.cc/tabs/s/shamrock/alipin_tab_ver_3.html ]
e|-----------|------------------------------|
B|-----------|------------------------------|
G|-----------|------------------------------|
D|-5-----7-7-|---5-7-7/9-10-9-7-7--5-5--7-7-|
A|---5-5-----|-7----------------------------|
E|-----------|------------------------------|

e|-----------------|-----------------|----------------------|
B|-----------------|-----------------|----------------------|
G|-----------------|-----------------|----------------------|
D|-----10-9-7-9----|-----10-9-5/7-5--|-7-5-4-5-5/10-9-7-5---|
A|-5h7----------10-|-5h7-------------|--------------------5-|
E|-----------------|-----------------|----------------------|