Sham 69 - Tell Us The Truth Chords & Tabs

 

Tell Us The Truth Chords & Tabs

Sham 69 Chords & Tabs

Version: 1 Type: Bass Tab

Tell Us The Truth Bass Tab

Time:20.53
Date:8/March/06

Intro/Verse
G-------------------------------------|
D-------------------------------------|
A-----------7--7--7-------------------|
E--5--5--5-----------3--3--3--5--5--5-|

Bridge
G-------------------------|
D-------------------------|
A-------------------------|
E--5--5--5--5--5--5--5--5-|
[ Tab from: http://www.guitartabs.cc/tabs/s/sham_69/tell_us_the_truth_btab.html ]
Chorus
G-------------------------------------------------------------------------|
D-------------------------------------------------------------------------|
A-------------------------------------------------5--5--5--5--------------|
E--7--7--7--7--3--3--3--3--7--7--7--7--3--3--3--3-------------7--7--7--7--|

Progression

Intro x4
Verse x9
Chorus x1
Verse x4
Bridge x1
Chorus x1
Guitar Solo( just play verse) x4
Chorus x1
Verse x4
Bridge x1
Chorus x2

END