Sham 69 - If The Kids Are United Chords & Tabs

 

If The Kids Are United Chords & Tabs

Sham 69 Chords & Tabs

Version: 2 Type: Bass Tab

If The Kids Are United Bass Tab

   
-----------------------------------------------------------------------------
			     IF THE KIDS ARE UNITED - SHAM 69
-----------------------------------------------------------------------------

Tabbed By : TAYLOR
e-mail: NOFX@herzeleid.net

Tuning:Standard ( E A D G )

INTRO
G|---------|
D|---------|
A|---------|
E|--5------|


MAIN RIFF
G|-----------------------------------|
D|-----------------------------------|X4
A|-----------------------------------|
E|---5-3--5-3-53--5-3--5-3-53--------|
[ Tab from: http://www.guitartabs.cc/tabs/s/sham_69/if_the_kids_are_united_btab_ver_2.html ]
VERSE
G|-------------------------------------------------|
D|-------------------------------------------------|X2
A|-------------------------------------------------|
E|--555555555-000000000000-3333333333333-555555555-|

MAIN RIFF

CHORUS
G|----------------------------------------------------|
D|----------------------------------------------------|X2
A|------------555555555555-777777777777---------------|
E|-5555555555---------------------------555555555555--|

MAIN RIFF
VERSE
MAIN RIFF
CHORUS
SOLO (VERSE)
CHORUS
MAIN RIFF

BRIDGE ("I DONT WANNA BE REJECTED...")
G|--------------------------------|
D|--------------------------------|
A|--7-----------5-----------------|
E|--------3------------5----------|

MAIN RIFF
VERSE
CHORUS X3

END ON "A" 
G|-------|
D|-------|
A|-------|
E|---5---|