Sham 69 - Hurry Up Harry Chords & Tabs

 

Hurry Up Harry Chords & Tabs

Sham 69 Chords & Tabs

Version: 1 Type: Tab 0 ratings
1 star 2 stars 3 stars 4 stars 5 stars
comments

Hurry Up Harry Tab

   
-------------------------------------------------------------------------------
			     HURRY UP HARRY - SHAM 69
-------------------------------------------------------------------------------
Tabbed by:Paul Radwell
Email:english_englishman@hotmail.com	

Tuning:Standard
[ Tab from: http://www.guitartabs.cc/tabs/s/sham_69/hurry_up_harry_tab.html ]
   A5
e|---------------------------------------------------------------------------|
B|---------------------------------------------------------------------------|
G|---------------------------------------------------------------------------|
D|-7-7-7-7-7-7-7-7--7-7-7-7-7-7-7-7------------------------------------------|
A|-7-7-7-7-7-7-7-7--7-7-7-7-7-7-7-7------------------------------------------|
E|-5-5-5-5-5-5-5-5--5-5-5-5-5-5-5-5------------------------------------------|
   C'mon...         C'mon...
  (Palm Mute)

   G5
e|---------------------------------------------------------------------------|
B|---------------------------------------------------------------------------|
G|---------------------------------------------------------------------------|
D|-5-5-5-5-5-5-5-5--7-7-7-7-7-7-7-7------------------------------------------|
A|-5-5-5-5-5-5-5-5--7-7-7-7-7-7-7-7------------------------------------------|
E|-3-3-3-3-3-3-3-3--5-5-5-5-5-5-5-5------------------------------------------|
   Hurry up Harry.. Come    on
   (Palm Mute)


C5   G5             A5    D5 A5 D5 A5
Were going down the pub
Comments