Shakira - Underneath Your Clothes Chords & Tabs

 

Underneath Your Clothes Chords & Tabs

Shakira Chords & Tabs

Version: 6 Type: Tab 0 ratings
1 star 2 stars 3 stars 4 stars 5 stars
comments

Underneath Your Clothes Tab

   
Shakira
Underneath Your Clothes

Tabbed by Andres (la_laker83@hotmail.com)

Hey, it's me again. I tabbed the song now instead of just the chords :)
I insist in the half step down tuning, because it's more comfortable.

Tuning: Eb Bb Gb Db Ab Eb


-Bass Intro, arranged for guitar, sounds ok.
Eb-----------------------------------
Bb-----------------------------------
Gb------6----------------------------
Db--------7-9--9-7------6---6---6----
Ab-----------------5------5---5------
Eb--5--------------------------------

Eb-----------------------------------
Bb-----------------------------------
Gb------6----------------------------
Db--------7-9--9---------------------
Ab---------------------11h12-11\-----
Eb--5-------5--5/10~-----------------


-1st Verse
Guitar 1
Eb------------4----------------------------4--------------------
Bb------10\---5-----7-----10--9------10\---5-----7-----10--9----
Gb------------------7----------------------------7--------------
Db--------------------------------------------------------------
Ab--9----------------------------9---------------5-----7--------
Eb--------------------------------------------------------------
  *Here starts Guitar 2 (playing the same as G1, see below)*
Eb--------------------------------------------------------------
Bb--10----10----9----9----7---7----10----9----------------------
Gb--11----11----9----9----7---7-----9---10----------------------
Db-----11----11---11---11---7---7---9----9----------------------
Ab--------------------------------------------------------------
Eb--------------------------------------------------------------

Eb--------------------5-----7-----------------------------------
Bb--10----10--------------7------9------------------------------
Gb--11----11----------7----------9------------------------------
Db-----11----11---\--------------9------------------------------
Ab--------------------------------------------------------------
Eb--------------------------------------------------------------

*Guitar 2 (starts in the middle)
Eb----------------------------------------------------
Bb-(10/14)--10----10----9----9----7---7----10----9----
Gb----------11----11----9----9----7---7-----9---10----
Db-------------11----11---11---11---7---7---9----9----
Ab----------------------------------------------------
Eb----------------------------------------------------

Eb----------------------------------------------------
Bb--10----10--------10\7------------------------------
Gb--11----11------------------------------------------
Db-----11----11---------------------------------------
Ab----------------------------------------------------
Eb----------------------------------------------------


-Chorus
Guitar 1
Eb-------------------------------------------------
Bb-------------------------------------------------
Gb-------------------------------------------------
Db------7--------------------7----------7--6--7----
Ab----7--------4-------5--7----------7-------------(2x)
Eb--5----------------------------------------------

Eb-------------------------------------------------
Bb-----5-----------7---10--9-----------------------
Gb-------6---------7----9--9-----------------------
Db---------6-------7----9--9-----------------------
Ab--4--------------5----7--7-----------------------
Eb-------------------------------------------------

Guitar 2 plays chords
A C#m7 D Esus4 E
A C#m7 D Esus4 E
C#m F#m D Esus4 E


-After 1st Chorus
Guitar 1
Eb----------------------
Bb----------------------
Gb--6-------6/9----9----
Db--7-------------------
Ab--7-------------------
Eb--5-------------------

[ Tab from: http://www.guitartabs.cc/tabs/s/shakira/underneath_your_clothes_tab_ver_6.html ]
-2nd Verse
Guitar 1
Eb------------4----------------------------4--------------------
Bb------10\---5-----7-----10--9------10\---5-----7-----10--9----
Gb------------------7----------------------------7--------------
Db--------------------------------------------------------------
Ab--9----------------------------9---------------5-----7--------
Eb--------------------------------------------------------------

Eb--------------------------------------------------------------
Bb--10----10----9----9----7---7----10----9----------------------
Gb--11----11----9----9----7---7-----9---10----------------------
Db-----11----11---11---11---7---7---9----9----------------------
Ab--------------------------------------------------------------
Eb--------------------------------------------------------------

Eb--------------------5-----7-----------------------------------
Bb--10----10--------------7------9------------------------------
Gb--11----11----------7----------9------------------------------
Db-----11----11---\--------------9------------------------------
Ab--------------------------------------------------------------
Eb--------------------------------------------------------------

Guitar 2
Eb------------------------------------------------------------------
Bb------------10---------------7--------------10---------------7----
Gb------------11--------9------7------9-------11--------9------7----
Db--2/7----11----------11----7--------9----11----------11----7------
Ab--4/9--9----------11-----5--------7----9----------11-----5--------
Eb----------------9---------------0---------------9-----------------

Eb------------------------------------------------------------------
Bb--10----10----9----9----7---7----10----9--------------------------
Gb--11----11----9----9----7---7-----9---10--------------------------
Db-----11----11---11---11---7---7---9----9--------------------------
Ab------------------------------------------------------------------
Eb------------------------------------------------------------------

Eb------------------------------------------------------------------
Bb--10----10--------10r7----7----9----------------------------------
Gb--11----11----------------7----9----------------------------------
Db-----11----11-------------7----9----------------------------------
Ab--------------------------5----7----------------------------------
Eb------------------------------------------------------------------


-Interlude ("I love you more...")
I think there are no guitars here, however these are the chords
C C/B Am G F G


-Solo
Guitar 1
Eb------------------------------------------------------------------------
Bb-|--2--2--2--2--|----|--10----10----9----9----10----10----10----9--|----
Gb-|*-2--2--2--2-*|----|*-11----11----9----9----11----11-----9----9-*|----
Db-|-----(4x)-----|----|-----11----11---11---11----------------------|----
Ab---------------------|--------------------(2x)---------------------|----
Eb------------------------------------------------------------------------

Guitar 2
Eb-----------------------------------------------
Bb-----------------------------------------------
Gb--9b11--9--------------------------------------
Db-----------9b11-----9--7--9--9b11--------------
Ab-----------------------------------------------
Eb-----------------------------------------------

Eb-----------------------------------------------
Bb-----------------------------------------------
Gb--9b11--9--------------------------------------
Db-----------9b11-----9b11--9b11r9---7--7b9r7----
Ab-----------------------------------------------
Eb-----------------------------------------------

 
-Ending
Guitar 1 (from the end of last chorus)
Eb-------------------------
Bb--7----9-----------10----
Gb--7----9-----------------
Db--7----9--------11-------
Ab--5----7--8--------------
Eb-------------------------

Guitar 2
Eb-------2---------2---2-------
Bb------2-------2-------2------
Gb-----2-----2-----------2-----
Db----4-------------------4----
Ab---4-------------------------
Eb--2--------------------------


Just in case:
A:	577655
C#m7:	x46454
D:	x57775
Esus4:	x 7 9 9 10 x
E:	x7999x
F#m:	244222
C:	x32010
C/B:	x2x010
Am:	x02210
G:	355433
F:	133211


Hope you understand and like it!
Mail me to la_laker83@hotmail.com
Visit www.geocities.com/clubtabz
Comments