Shakira - Underneath Your Clothes Chords & Tabs

 

Underneath Your Clothes Chords & Tabs

Shakira Chords & Tabs

Version: 4 Type: Chords 0 ratings
1 star 2 stars 3 stars 4 stars 5 stars
comments

Underneath Your Clothes Chords

   
    Intro

E----------------------------------------------
B----------------------------------------------
G-5------------------------5-------------------
D---6-6h8-8-6-----5-5-5------6-6h8-6-6-5h6-5--
A--------------4---4-4---------------6---------
E-------------------------4--------------------

    Verse

Fm(8 fret) Cm C# D#
You're a song 
 C#                       Fm
Written by the hands of god
               Cm
Don't get me wrong cause 
  C#                             Fm
This might sound to you a bit odd
         Cm          C#
But you own the place
      D#                  Fm   Cm
Where all my thoughts go hiding
     C#              
And right under your clothes
     D#
Is where I find them 

    Chorus
[ Tab from: http://www.guitartabs.cc/tabs/s/shakira/underneath_your_clothes_crd_ver_4.html ]
G#     Cm         C# 
Underneath Your Clothes
            D#
There's an endless story 
G#           Cm      C#
There's the man I chose 
            D#
There's my territory
    Cm                   Fm
And all the things I deserve
      C#              D#
For being such a good girl honey

    Verse2

Because of you
I forgot the smart ways to lie
Because of you
I'm running out of reasons to cry
When the friends are gone
When the party's over 
We will still belong to each other 

    Chorus


    Bridge
  B F# G#m F# E
I love you more than all that's on the planet

Movin' talkin' walkin' breathing

You know it's true 

Oh baby it's so funny

You almost don't believe it

As every voice is hanging from the silence

Lamps are hanging from the celing

Like a lady to her good manners

I'm tied up to this feeling

    Solo

E------------------------------------------------------
B------------------------------------------------------
G-8/10/8----------------------8/10/8-------------------
D--------8-8/10--8-6-8-8-8/10--------8-8/10--8/10-10-8-
A------------------------------------------------------
E------------------------------------------------------

   Chorus
Comments