Shakira - Dont Bother Chords & Tabs

 

Dont Bother Chords & Tabs

Shakira Chords & Tabs

Version: 1 Type: Tab

Dont Bother Tab

   
Artist: Shakira
Song: Donít Bother
Tabbed by: Ilir Livoreka
e-mail: ilir_livoreka@hotmail.com

The guitar part in start

e--11h12-11h12-11h12-11h12-11-12-12--|
B------------------------------------|
G------------------------------------|
D------------------------------------|
A------------------------------------|
E------------------------------------|
[ Tab from: http://www.guitartabs.cc/tabs/s/shakira/dont_bother_tab.html ]
Chords for guitar:
   G    D    Am   C
e--3----2----0----0----|
B--3----3----1----1----|
G--0----2----2----0----|
D--0----0----2----2----|
A--2---------0----3----|
E--3-------------------|

This is note of solo but you listening the song and play identical in the song

e------------------------14-15-17-12-----15--|
B--15-13-12-10-8-12-8--15------------15--15--|
G--------------------------------------------|
D--------------------------------------------|
A--------------------------------------------|
E--------------------------------------------|

This is not complete tabb. If I completed show in the ultimate