Shakin Stevens - Turning Away Chords & Tabs

 

Turning Away Chords & Tabs

Shakin Stevens Chords & Tabs

Version: 1 Type: Bass Tab 0 ratings
1 star 2 stars 3 stars 4 stars 5 stars
comments

Turning Away Bass Tab

Turning Away
Song written by Tim Krekel and originally recorded by Crystal Gayle,
This version by Shakin Stevens reached number 15 in UK charts in 1986
Tab by bass50611. Nice & easy rock-a-billy song (If you watch Youtube
Dave Edmunds is on Lead Guitar) Have Fun!
Any comments its bass254@btinternet.com

Intro:
G|------------------------------------------------------------------|
D|-5--------5-5-5-5-5-5-5-5-----------------------------------------|
A|-----------------------------2---5-5----2-5-2----2---5-5----2-5-2-|
E|---------------------------3----------3--------3----------3-------|

Verse:                                                      (PLAY THIS x 2)
G|-------------------------------------------------------------------------|
D|------------------------------------------2-5-2---4-7-4------------------|
A|---2---5-5---2-5-2---2---5-5----2-5-2---3--------5--------2---55---2-5-2-|
E|-3---------3-------3----------3--------------------------3--------3------|

Bridge 1:                  (PLAY THIS x2)
G|---------------------------------------|
D|---------------------------------------|
A|---2---5-5---2-5-2---7-5---5---7-5---5-|
E|-3---------3-------------7---------7---|
[ Tab from: http://www.guitartabs.cc/tabs/s/shakin_stevens/turning_away_btab.html ]
Chorus:
G|-------------------------------------------------------------------------|
D|-----------------------------------------2-5-2---4-7-4-------------------|
A|---2---5-5---2-5-2---2---5-5-----1-2---3--------5---------2---55---2-5-2-|
E|-3---------3-------3---------3-5------------------------3---------3------|

Middle 8:                                                              .
G|-----4-----------------------------------------------------------------|
D|---5---5----4-7-4-----6-------2-5-2--------2-------9-------------------|
A|-7--------5-------4-7---7---3----------2-5----7-10---10-----7-10-7---5-|
E|-------------------------------------3--------------------8------------|

Bridge 2:                    (PLAY THIS x2)
G|---------------------------------------------------------------|
D|-5------5-5-5-5-5-5-5-5----------------------------------------|
A|---------------------------2---5-5---2-5-2---7-5---5---7-5---5-|
E|-------------------------3---------3-------------7---------7---|

Guitar Interlude:                                           (PLAY THIS x2)
G|-------------------------------------------------------------------------|
D|-----------------------------------------2-5-2---4-7-4-------------------|
A|---2---5-5---2-5-2---2---5-5-----1-2---3--------5---------2---55---2-5-2-|
E|-3---------3-------3---------3-5------------------------3--------3-------|

Repeat Middle 8:

Repeat Bridge 2:

Repeat Chorus:

Repeat Bridge 1 To End/Fade
Comments