Shaggy - Angel Chords & Tabs

 

Angel Chords & Tabs

Shaggy Chords & Tabs

Version: 1 Type: Tab

Angel Tab

Has anyone noticed that the riff is from The Joker from The Steve Miller Band!
And the words are from another song too!
Here's the guitar line


e|---------------------------------------------
B|---------------------------------------------
G|---------------------------------------------
D|------------0h2p0-0--------------------------
A|-----0h2-3-3----------0h2-3-3-3-3-3-2-0------
E|-3-3--------------------------------------2--
[ Tab from: http://www.guitartabs.cc/tabs/s/shaggy/angel_tab.html ]
e|---------------------------------------------
B|---------------------------------------------
G|----------------------------------------0-0--
D|------------0h2p0-0-----------------0h2------
A|-----0h2-3-3----------0h2-3-3-3-3-3----------
E|-3-3-----------------------------------------

There you go.  It sounds like a bass plays this most of the song,
but if you listen you can here an acoustic playing in on the chorus 
and a little in the verse.  

STRETCH