Shaft - Reverse Over Me Chords & Tabs

 

Reverse Over Me Chords & Tabs

Shaft Chords & Tabs

Version: 1 Type: Tab 0 ratings
1 star 2 stars 3 stars 4 stars 5 stars
comments

Reverse Over Me Tab

Reverse Over Me

Play to the beat. Repeat however many times is needed
|-------------------------------------------------------|
|-------------------------------------------------------|
|-----8-8-----------------------------8-------8---------|
|-9-9-9-9---------------9-----9-----9-------9-----------|
|-7-9-9-7-------------7-----9---------------------------|
|-7-7-7-9-----------7-----7-----7-------9---------------|

strummed slowly and quietly repeatedly
|-------------------------------------------------------|
|-------------------------------------------------------|
|----------------------------88-------------88----------|
|-99999999999999-99999999999999-99999999999999----------|
|-77777777777799-77777777777777-77777777777777----------|
|-77777777777777-77777777777777-77777777777799----------|

verse (ending at "like a sword")
|-------------------------------------------------------|
|-------------------------------------------------------|
|-----8-8-----------------------------------------------|
|-9-9-9-9-----------------------------------------------|
|-7-9-9-7-----------------------------------------------|
|-7-7-7-9-----------------------------------------------|

before like the screaming...
|-------------------------------------------------------|
|-------------------------------------------------------|
|-------------------------------------------------------|
|-------------------------------------------------------|
|-5-5-5-5-5-5-5-5--6---6~8~6--4-4-----------------------|
|-6-6-6-6-6-6-6-6--6----------5-5-----------------------|

like the screaming...
|-------------------------------------------------------|
|-------------------------------------------------------|
|-------------------------------------------------------|
|-xxxxxx-x-x-x---xxxxxx-x-xxxx--------------------------|
|-6xxxx6-6-5-6---3xxxx3-3-xxx5--------------------------|
|-xxxxxx-x-x-x---xxxxxx-x-xxxx--------------------------|

like a figure...
|-------------------------------------------------------|
|-------------------------------------------------------|
|-------------------------------------------------------|
|-x-x-x-x-x-x-x-x-x-x-x-x-x-x-x-x-x-x-x-x---------------|
|-6-6-6-6-6-5-6-5-6-5-3-3-3-3-3-5-1-1-1-5---------------|
|-x-x-x-x-x-x-x-x-x-0-0-0-0-0-0-0-x-x-x-x---------------|




at the end of verse
|-------------------------------------------------------|
|-------------------------------------------------------|
|-------------------------------------------------------|
|-8-8-8-8-8-8-8-8-8-8-8-8-8-8-8-8-----------------------|
|-8-8-8-8-8-8-8-8-8-8-8-8-8-8-8-8-----------------------|
|-6-6-6-6-6-6-6-6-6-6-6-6-6-6-6-6-----------------------|
[ Tab from: http://www.guitartabs.cc/tabs/s/shaft/reverse_over_me_tab.html ]
distortion
|-------------------------------------------------------|
|-------------------------------------------------------|
|-----8-8-----------------------------------------------|
|-9-9-9-9-----------------------------------------------|
|-7-9-9-7-----------------------------------------------|
|-7-7-7-9-----------------------------------------------|

the solo in the background repeated until above guitar stops
|-11-11-11-11-11-11-11-11-7-7-7-7-------------10--------|
|---------------------------------11-11-11-11-----------|
|-------------------------------------------------------|
|-------------------------------------------------------|
|-------------------------------------------------------|
|-------------------------------------------------------|

play for each line of words
|-------------------------------------------------------|
|-------------------------------------------------------|
|-----8-8-----------------------------8-------8---------|
|-9-9-9-9---------------9-----9-----9-------9-----------|
|-7-9-9-7-------------7-----9---------------------------|
|-7-7-7-9-----------7-----7-----7-------9---------------|

before "like painful advice"
|-------------------------------------------------------|
|-------------------------------------------------------|
|-------------------------------------------------------|
|-------------------------------------------------------|
|-5-5-5-5-5-5-5-5--6---6~8~6--4-4-----------------------|
|-6-6-6-6-6-6-6-6--6----------5-5-----------------------|

like painful advice (like undulating...)
|-------------------------------------------------------|
|-------------------------------------------------------|
|-------------------------------------------------------|
|-xxxxxx-x-x-x---xxxxxx-x-xxxx--------------------------|
|-6xxxx6-6-5-6---3xxxx3-3-xxx5--------------------------|
|-xxxxxx-x-x-x---xxxxxx-x-xxxx--------------------------|



like red hate (it will come to you)
|-------------------------------------------------------|
|-------------------------------------------------------|
|-------------------------------------------------------|
|-x-x-x-x-x-x-x-x-x-x-x-x-x-x-x-x-x-x-x-x---------------|
|-6-6-6-6-6-5-6-5-6-5-3-3-3-3-3-5-1-1-1-5---------------|
|-x-x-x-x-x-x-x-x-x-0-0-0-0-0-0-0-x-x-x-x---------------|

end on this (repeat loads of times):
|-------------------------------------------------------|
|-------------------------------------------------------|
|-----8-8-----------------------------8-------8---------|
|-9-9-9-9---------------9-----9-----9-------9-----------|
|-7-9-9-7-------------7-----9---------------------------|
|-7-7-7-9-----------7-----7-----7-------9---------------|

then play this slowly and quietly
|-------------------------------------------------------|
|-------------------------------------------------------|
|----------------------------88-------------88----------|
|-99999999999999-99999999999999-99999999999999----------|
|-77777777777799-77777777777777-77777777777777----------|
|-77777777777777-77777777777777-77777777777799----------|
Comments