Shadows Fall - What Drives The Weak Chords & Tabs

 

What Drives The Weak Chords & Tabs

Shadows Fall Chords & Tabs

Version: 1 Type: Tab 0 ratings
1 star 2 stars 3 stars 4 stars 5 stars
comments

What Drives The Weak Tab

   
SHADOWS FALL
What Drives The Weak
courtesy of Guitar One - February 2005 issue

Dropped C

 INTRO
|------------------------------------|----------------------1-1-1-1-1-1--|
|------------------------------------|--------------1-1-1-1-1-1-1-1-1-1--|
|------------------------------------|--------3-3-3-3-3-3-3-3-3-3-3-3-3--|
|--------5-------7------0-----0---0--|--3-3-3-3-3-3-3-3-3-3-3-3-3-3-3-3--|
|--3-0-3-3-3-0-3-5--0-0-0-0-0-0-0-0--|--1-1-1-1-1-1-1-1-1-1-1-1-1-1-1-1--|
|--3-0-3---3-0-3----0-0-0-0-0-0-0-0--|-----------------------------------|
 pm.....   .....    ...   ...   .       .....

|--------------------------------------------------------------------|
|--------------------------------------------------------------------|
|-------------------------------------------------------7/10\9-(9)\--|
|--------5------7-----------------------5------7--------x------------|
|--3-0-3-3--3-0-5---0-5-0-7-8--0--3-0-3-3--3-0-5--0-5-0-5/-8\7-(7)\--|
|--3-0-3----3-0-----0-5-0-7-8--0--3-0-3----3-0----0-5-0--------------|
     pm.            .   .      .      .           .   .

|-------------------------------------------------------1----------|
|-----------------------------------------1-------------1----/6-6--|
|---------------------------------------0----0--------0----0-------|
|--------5------7---------------------3--------3----3--------------|
|--3-0-3-3--3-0-5---0-5-0-7---------1------------0-----------------|
|--3-0-3----3-0-----0-5-0-7-*8~--0---------------------------------|

 FIRST SOLO
|-------------------------------------------8-8/10-13-13p10-13-15-------12-13-15-12----------|
|--(6)-p5----------10-12-(12)^----------------------------------------x-------------13-------|
|---------7p5-*7~--10-12-(12)^-12p10-9-*10~-------------------------x------------------15~~--|
|--------------------------------------------------------------------------------------------|
|--------------------------------------------------------------------------------------------|
|--------------------------------------------------------------------------------------------|
                                                                   [------|

|--20^-20^~~----------20----------------15/18--17--13-15^---------------------|
|------------15/17-18----17-18~~-(18)\--------------------15p13-13-13/15~~~~--|
|-----------------------------------------------------------------------------|
|-----------------------------------------------------------------------------|
|-----------------------------------------------------------------------------|
|-----------------------------------------------------------------------------|

 VERSE 1 & 2
|------------------------------------------------------------|
|------------------------------------------------------------|
|------------------------------------------------------------|
|-----------------------------------------------3/5\3--------|
|----------6-5------5-3----3---1----------6-5---1/3\1-3------|
|--(5)-3-5------5-3------1---1---5--3-4/5-------------3---5--|
                                   {:Play 1st and 3rd time:}

|-----------------------------------------------------------------|
|-----------------------------------------------------------------|
|----------------------------------------------------0------------|
|-------------------3/5\3----------------------------0-----5------|
|-----------6-*5~~--1/3\1-3--3----------------6-*5~~---1/3---3-3--|
|-(5)-3-4/5---------------3--3--5---(5)-3-4/5------------------3--|
 {:::::::Play for 2nd time:::::::} {::::::Play for 4th time:::::}

 PRE-CHORUS
|----------0--------------0-------------0-----1--0-----0--------|
|--------1---1----------1---1---------1---1--------1/3---3\1----|
|------0-------0------0-------0-----0-------0-------------------|
|----3--------------3-------------2-----------------------------|
|--1-------------1--------------3----------------------------1--|
|---------------------------------------------------------------|

|--5-----5-----5-----5-------5-----5-----6-5-----5---------5-----5-----5-----6-------------|
|----6-----6-----6-----6-------6-----6-------6-----6---------6-----6-----6-----5------3-3--|
|------5-----5-----5-----3/5-----5-----5-------5-----5-(5)-----5-----5-----5-----3\2--3-2--|
|------------------------------------------------------------------------------------------|
|------------------------------------------------------------------------------------------|
|------------------------------------------------------------------------------------------|

|------------0--------------0--------------0------|
|----------1---1----------1---1----------0-----2--|
|--------0-------0------0-------0------4-----4----|
|------3--------------3--------------2------------|
|--(1)-------------1---------------0--------------|
|-------------------------------------------------|
[ Tab from: http://www.guitartabs.cc/tabs/s/shadows_fall/what_drives_the_weak_tab.html ]
 CHORUS
|---------------------------------------------------|
|---------------------------------------------------|
|----------------12-10-------12-10-------9-10----7--|
|-----------------x--x--------x--x-------x--x----x--|
|----------------10--8-------10--8-------7--8----5--|
|---------------------------------------------------|


|----------------------------|
|----------------------------|
|----------------------------|
|--0-------------------------|
|--0----------0-3-0-3-5-3----|
|--0----------0-3-0-3-5-3-5--|

 CHORUS (FILLS!!!!)
|--18/22---20---17-18^----18p17---------------|----------1---------|
|-------------------------------17-17/18~~~~--|----------1---------|
|---------------------------------------------|--------0-----0-----|
|---------------------------------------------|------3-------------|
|---------------------------------------------|--(0)---------------|
|---------------------------------------------|-----------------5--|

 BREAKDOWN
|-----------------------------------------------------------------|
|-----------------------------------------------------------------|
|-----------------------------------------------------------------|
|--------------------5----------------------------4\3--------4----|
|--0----0-0---0--1-0-3-3-------------------0----0-2\1-3---0--2-3--|
|--0----0-0---0--1-0---3---0-0-0-0-0-0-0-0-0----0-----3---0----3--|

 GUITAR SOLO GUITAR TWO (JON)
|-------------------------------------------------------------------
|-------------------------------------------------------------------
|--------------------------------------------------------------------
|-----------7-8-10/12--10-8-8/10~~~--------------------------------------------------
|--8/10~~~---------------------------------------------------------------------
|----------------------------------------------------------------------

|----------------------------------------------------------------------------------------|
|----------------------------------------------------------------------------------------|
|---------------14-12-10-12-14/15-14-12h14p12\10-12-10-12^-p10-12-p10-12-12^^-p10-12/14--|
|-(10)-10-12-13--------------------------------------------------------------------------|
|----------------------------------------------------------------------------------------|
|----------------------------------------------------------------------------------------|

|--------------------------------------------------------------------------------------|
|-------------------------15h16h18-16-15-----------------------------------------------|
|-12-14-15-15-14-15-17-17----------------18-17-15\14--14--------------------------17^--|
|--------------------------------------------------------17-15\-12-14-15-15/17---------|
|--------------------------------------------------------------------------------------|
|--------------------------------------------------------------------------------------|

|---------------------18-20-21-21^~~---18-20-18-------------15-----15-18p15------15-----15-18p15--|
|-----------------------------------------------21^~~---18^----18^-----------18^----18^-----------|
|--(*17)~~~~-15-17~~------------------------------------------------------------------------------|
|-------------------------------------------------------------------------------------------------|
|-------------------------------------------------------------------------------------------------|
|-------------------------------------------------------------------------------------------------|

|------15-----15-18p15----15------------------------------------------------------------------------------|
|--18^----18^----------18----18-15-----15h18p15-----15h18p15-----15h18p15-----15h18p15-----15h18p15 18~~--|
|----------------------------------17^----------17^----------17^----------17^----------17^----------------|
|---------------------------------------------------------------------------------------------------------|
|---------------------------------------------------------------------------------------------------------|
|---------------------------------------------------------------------------------------------------------|

|-----------------------------------------------------------------------------------------------------|
|-----------------------------------------------------------------------------------------------------|
|--17p15p12-------17p15p12-------17p15p12-------17p15p12-------17p15p12-------17p15p12--17^^^~~~~~~~--|
|-----------15-15----------15-15----------15-15----------15-15----------15-15-------------------------|
|-----------------------------------------------------------------------------------------------------|
|-----------------------------------------------------------------------------------------------------|

 OUTRO
|----------------------------------------------------|------|
|----------------------------------------------------|------|
|----------------------------------------------------|------|
|--------5--------7------------------------5------7--|--7\--|
|--3-0-3-3--3-0-3-5-0-0-0-0-0-0-0-0--3-0-3-3--3-0-5--|--5\--|
|--3-0-3----3-0-3---0-0-0-0-0-0-0-0--3-0-3----3-0----|------|
Comments