Shadows Fall - What Drives The Weak Chords & Tabs

 

What Drives The Weak Chords & Tabs

Shadows Fall Chords & Tabs

Version: 1 Type: Bass Tab 0 ratings
1 star 2 stars 3 stars 4 stars 5 stars
comments

What Drives The Weak Bass Tab

   
Artist:Shadows Fall
Song:What Drives The Weak
Tuning:Drop C (C,G,C,F)

This is a really awsome song I done my best

Intro:
F:-------------------|
C:-------------------| X3
G:----3----5--3--3-3-|
C:-000-0000-00-00-0--|

F:-----------------|
C:-----------------|
G:-----------------|
C:--00000000000000-|

Chorus:
F:-----------------------------------------------------|
C:----------------3--------------3h5-3---------------3-|
G:-----3----5-3-5-------3----5-3-----------3----5-3-5--|
C:-000---00--0------000---00--0--------000---00--0-----|

F:------------------|
C:------------------|
G:------------------|
C:-55555555-33333333|

F:-----------------------------------------------------|
C:----------------3--------------3h5-3---------------3-|
G:-----3----5-3-5-------3----5-3-----------3----5-3-5--|
C:-000---00--0------000---00--0--------000---00--0-----|

Pre Verse:
F:-5--3--------|
C:-----5-5-3---|
G:----------53-|
C:-------------|

Verse:
F:-----------------------------|
C:-----------------------------|X1
G:----7-5--5-3-3-1----7-5--1-3-|
C:0--0---00---0---0--0---00---3|

F:------------------------------|
C:------------------------------| X1
G:----7-5--5-3-3-1----7-5--1-3--|
C:0--0---00---0---0--0---00---33|

F:-----------------------------|
C:-----------------------------| X2
G:----7-5--5-3-3-1----7-5--1-3-|
C:0--0---00---0---0--0---00---3|

Pre Chorus:
F:------------------------------3~-----------3~-3/5-3~-----|
C:-----------3-5~-3---------3-5---3-5-----3/5--------------|
G:-3~----3-5-------5-3~---3------------3~--------------3~--|
C:---------------------------------------------------------|

F:------------------------|
C:-------15-17~--15-------|
G:-15-17------------17-15~|
C:------------------------|

F:----------15~-----------|
C:----15-17-----15-17-----|
G:-15------------------15~|
C:------------------------|

F:------------------------------------------------------|
C:-15-14----15-14----15-14-----------15-14-15-14-15--12~|
G:-------15-------15-------15~--------------------------|
C:------------------------------------------------------|

Chorus:
F:-----------------------------------------------------|
C:----------------3--------------3h5-3---------------3-|
G:-----3----5-3-5-------3----5-3-----------3----5-3-5--|
C:-000---00--0------000---00--0--------000---00--0-----|

F:------------------|
C:------------------|
G:------------------|
C:-55555555-33333333|

F:-----------------------------------------------------|
C:----------------3--------------3h5-3---------------3-|
G:-----3----5-3-5-------3----5-3-----------3----5-3-5--|
C:-000---00--0------000---00--0--------000---00--0-----|

Pre Verse:
F:---------------------|
C:---------------------|
G:---------------------|
C:-5555555-33333333--0~|

Verse:
F:-----------------------------|
C:-----------------------------|X1
G:----7-5--5-3-3-1----7-5--1-3-|
C:0--0---00---0---0--0---00---3|

F:------------------------------|
C:------------------------------| X1
G:----7-5--5-3-3-1----7-5--1-3--|
C:0--0---00---0---0--0---00---33|
[ Tab from: http://www.guitartabs.cc/tabs/s/shadows_fall/what_drives_the_weak_btab.html ]
F:-----------------------------|
C:-----------------------------| X2
G:----7-5--5-3-3-1----7-5--1-3-|
C:0--0---00---0---0--0---00---3|

Pre Chorus:
F:------------------------------3~-----------3~-3/5-3~-----|
C:-----------3-5~-3---------3-5---3-5-----3/5--------------|
G:-3~----3-5-------5-3~---3------------3~--------------3~--|
C:---------------------------------------------------------|

F:------------------------|
C:-------15-17~--15-------|
G:-15-17------------17-15~|
C:------------------------|

F:----------15~-----------|
C:----15-17-----15-17-----|
G:-15------------------15~|
C:------------------------|

F:------------------------------------------------------|
C:-15-14----15-14----15-14-----------15-14-15-14-15--12~|
G:-------15-------15-------15~--------------------------|
C:------------------------------------------------------|

Chorus:
F:-----------------------------------------------------|
C:----------------3--------------3h5-3---------------3-|
G:-----3----5-3-5-------3----5-3-----------3----5-3-5--|
C:-000---00--0------000---00--0--------000---00--0-----|

F:------------------|
C:------------------|
G:------------------|
C:-55555555-33333333|

F:-----------------------------------------------------|
C:----------------3--------------3h5-3---------------3-|
G:-----3----5-3-5-------3----5-3-----------3----5-3-5--|
C:-000---00--0------000---00--0--------000---00--0-----|

Pre Bridge:
F:------------------|
C:------------------|
G:------------------|
C:-55555555-3333333-|

Bridge:
F:----------------------------------------|
C:----------------------------------------| X4
G:----------------33-----------------5-3~-|
C:-0---0-0----000-----0000000-0----0------|

Solo:
F:-------------------|
C:-------------------| X8
G:-------------------|
C:55555555-3333-1111-|

Pre Chorus:
F:------------------|
C:------------------|
G:------------------|
C:-0000000000000000-|

Chorus:
F:-----------------------------------------------------|
C:----------------3--------------3h5-3---------------3-|
G:-----3----5-3-5-------3----5-3-----------3----5-3-5--|
C:-000---00--0------000---00--0--------000---00--0-----|

F:------------------|
C:------------------|
G:------------------|
C:-55555555-33333333|

F:-----------------------------------------------------|
C:----------------3--------------3h5-3---------------3-|
G:-----3----5-3-5-------3----5-3-----------3----5-3-5--|
C:-000---00--0------000---00--0--------000---00--0-----|

F:------------------|
C:------------------|
G:------------------|
C:-55555555-33333333|

F:-----------------------------------------------------|
C:----------------3--------------3h5-3---------------3-|
G:-----3----5-3-5-------3----5-3-----------3----5-3-5--|
C:-000---00--0------000---00--0--------000---00--0-----|

F:--------5--3-------|
C:-55-33--------5----|
G:------5----------3-|
C:-------------------|

Outro:
F:-------------------|
C:-------------------| X6
G:----3----5--3--3-3-|
C:-000-0000-00-00-0--|

F:------------------|
C:------------------| X3
G:----3----5--------|
C:-000-0000-0000000-|

F:----------|
C:----------|
G:----3--5\-|
C:-000-00---|

Thats all of it in order so please rate it.
Comments