Shadows Fall - To Ashes Chords & Tabs

 

To Ashes Chords & Tabs

Shadows Fall Chords & Tabs

Version: 1 Type: Tab 0 ratings
1 star 2 stars 3 stars 4 stars 5 stars
comments

To Ashes Tab

Band: Shadows  Fall
Song: To Ashes
Album: Of One Blood
Tabbed By: SEAN

Drop tuning one half step on all strings
[ Tab from: http://www.guitartabs.cc/tabs/s/shadows_fall/to_ashes_tab.html ]
This is the opening right after the bass and fed-back intro 
|------------------------------| 
|------------------------------|
|------------------------------|
|-------3-------3-2/4----------|
|-5-5-5---5-5-5----------------|
|------------------------------|

|------------------------------|
|------------------------------|
|------------------------------|
|------------------------------|
|-------5-------5-4------------|
|-6-6-6---6-6-6-----5----------|

since no one can figure out this song I got the opening if anyone else has more please send it to me at death77429@yahoo.com
Comments