Shadows Fall - The Light That Blinds Chords & Tabs

 

The Light That Blinds Chords & Tabs

Shadows Fall Chords & Tabs

Version: 3 Type: Tab 0 ratings
1 star 2 stars 3 stars 4 stars 5 stars
comments

The Light That Blinds Tab

-------------------------------------------------------------------------------
			     SONG NAME-The light that blinds  
                             Band Name-Shadows fall
-------------------------------------------------------------------------------
Tabbed by:bombtrack15

Tuning: standard tuning with a capo on 1st fret 
[ Tab from: http://www.guitartabs.cc/tabs/s/shadows_fall/the_light_that_blinds_tab_ver_3.html ]
                                              x2
e|---0------0--1-----1|--^---3----------------|
B|-----1---------1----|-0-1----1------0-------|
G|-------2---------2--|----------0-------2-1-*|
D|--------------------|----------------------*|
A|---0---------0------|---------------0-------|
E|--------------------|-3---------------------|
                                              x4
e|-----------|-----------|--------------------|
B|-----0-1---|--1-3-1----|--3/5-3-1-0---------|
G|-1/2-------|--------0--|-------------------*|
D|-----------|-----------|-------------------*|
A|-----------|-----------|--------------------|
E|-----------|-----------|--------------------|


This is the intro part that i know I havent figured out the rest of 
the song though.
Comments