Shadows Fall - The Idiot Box Chords & Tabs

 

The Idiot Box Chords & Tabs

Shadows Fall Chords & Tabs

Version: 2 Type: Tab 0 ratings
1 star 2 stars 3 stars 4 stars 5 stars
comments

The Idiot Box Tab

   
----------------------------------------------------------------------------
			     The Idiot Box - Shadow's Fall
----------------------------------------------------------------------------
Tabbed by:Vitilillniss
Email:Vitilillniss@yahoo.com

Tuning:D - dropped C

                           Intro Riff
e|--------------------------------------------------------------------------|
B|--------------------------------------------------------------------------|
G|--------------------------------------------------------------------------|
D|---0-----------1-----------6------------0---------------0-0---0-0---------|
A|---0-----------1-----------6------------0---------------0-0---0-0---------|
D|---0-----------1-----------6------------0---------------0-0---0-0---------|
[ Tab from: http://www.guitartabs.cc/tabs/s/shadows_fall/the_idiot_box_tab_ver_2.html ]
      Riff A                                         Riff B
e|:-----------------------------:-:-----------------------------------------|
B|:-----------------------------:-:-----------------------------------------|
G|:-----------------------------:-:-------------------------------5-5-7-7---|
D|:-----------------------------:-:-------------------------------5-5-7-7---|
A|:-0-0--5-3--6-6-5--3-3-5--1-3-:-:-0-------------3-2-----2-0-3---3-3-5-5---|
D|:-0-0-------------------------:-:-0-0-0-0-0-0-0-3-2-0-0-2-0-3-------------|

                                      Riff C
e|----------:-:-------------------------------------------------------------|
B|----------:-:-------------------------------------------------------------|
G|-8-8-7-7--:-:-------------------------------------------------------------|
D|-8-8-7-7--:-:-------------------------------------------------------------|
A|-6-6-5-5--:-:-------------------------------------------------------------|
E|----------:-:-------------------------------------------------------------|

| /  slide up
| \  slide down
| h  hammer-on
| p  pull-off
| ~  vibrato
| +  harmonic
| x  Mute note
===============================================================================
Comments