Shadows Fall - Pure Chords & Tabs

 

Pure Chords & Tabs

Shadows Fall Chords & Tabs

Version: 1 Type: Tab 0 ratings
1 star 2 stars 3 stars 4 stars 5 stars
comments

Pure Tab

Shadows Fall - Pure

Here is the Intro Riff for Pure
I think they do something differant the third or so time, but this is the 
main riff


----------------------------------------------------------------
----------------------------------------------------------------
----------------------------------------------------------------
-------555--444--------------555--444---------------------------
--333------------555---333-------------555----------------------
----------------------------------------------------------------

----------------------------------------------------------------
----------------------------------------------------------------
----------------------------------------------------------------
--------999------------------------999--777-10-10-10------------
-3/777-------10-10-10---999---777-------------------------------
----------------------------------------------------------------
[ Tab from: http://www.guitartabs.cc/tabs/s/shadows_fall/pure_tab.html ]
This is the Verse, Chorus...I don't know, but you'll recognize it when you hear it
Just repeat it a few times....After that it goes back to the intro riff and back to this again.
---------------------------------------------------
---------------------------------------------------
---------------------------------------------------
---------------------------------------------------
-4--5--4-----3--4--3-------------------------------
-2--3--2--0--1--2--1--0----------------------------


--------------------------------------------------------------------------------
--------------------------------------------------------------------------------
---------------------99----99----77----77---------------------------------------
-4-5-4---3-4-2---------------------------------7-777777777--5-555555555---------
-2-3-2-0-1-2-0----00----00----00----00----00---5-555555555--3-333333333---------
                                              (they do a gallop here)
-----------------------------------------------------------------
-----------------------------------------------------------------
--------------------7/6------5--5/4------------------------------
------5-5/4---------5/4--7---3--3/2--5---------------------------
-2-2--3-3/2---5----------5-----------3---------------------------
-0-0----------3-00---------0-------------------------------------


That's all I know for now...It should be right. Usually I tab songs out easier with a guitar but
I didn't have one near me at the time...if it doesn't sound right, let me know....

Severed666@Nightmail.com

-Fuk the world, for all it's worth, every inch of planet earth- PanterA
Comments