Shadows Fall - Power Of I And I Chords & Tabs

 

Power Of I And I Chords & Tabs

Shadows Fall Chords & Tabs

Version: 3 Type: Tab 0 ratings
1 star 2 stars 3 stars 4 stars 5 stars
comments

Power Of I And I Tab


Shadows fall-The power of i and i
Album:The War Within
Tuning: Drop C (CGCFAD)
(.)=Palm Mute
any questions......stillenracing93 (Screenname)


Listen to the song for strumming speed

Intro
D|-------------------------------------------------|
A|-------------------------------------------------|
F|---------------4-3----------------------(4x)-----|
C|---------------2-1-------------------------------|
G|-4-3-0-1-2-1-0-----4-3-0-1-2-1-0-----------------|
C|-4-3-0-1-2-1-0-----4-3-0-1-2-1-0-----------------|
   . . . . . . .     . . . . . . .

Stomp riff
D|-----------------------------|
A|-----------------------------|
F|-----------------------------|
C|---------------------2-----2-|
G|-0-1-0--4-3-0--0-1-0-3-----4-|
C|-0-1-0--4-3-0--0-1-0---0-0---|
   . . .  . . .  . . .   . .

Intro riff again
D|-------------------------------------------------|---------------------|
A|-------------------------------------------------|---------------------|
F|---------------4-3----------------------(2x)-----|--------76-7/9-7-6-4-|
C|---------------2-1-------------------------------|-John-5-54-5/7-5-4-2-|
G|-4-3-0-1-2-1-0-----4-3-0-1-2-1-0-----------------|-Matt-3--------------|
C|-4-3-0-1-2-1-0-----4-3-0-1-2-1-0-----------------|---------------------|
   . . . . . . .     . . . . . . .

[ Tab from: http://www.guitartabs.cc/tabs/s/shadows_fall/power_of_i_and_i_tab_ver_3.html ]
Verse Riff(first time matt and john play PT.1, then the next time they play
the harmony                           (alternate these 2 endings)
D|------------------------------------|--------------|-----------------|
A|-------------------(4x)-------------|-ending 1-----|--8-8---8-6---6--|
F|------------------------------------|--------------|--9-10--9/7--7-7-|
C|---7------------3-----5/6\5---------|-PT.2-7-5-0-2-|--0-0---0/0------|
G|---5-00-1p0-000-1-000-3/4\3-131-0---|-PT.1-8-7-1-3-|--ending 2-------|
C|-----00-1p0-000---000-----0-131-0000|-------0-0-0--|-----------------|
       ..     ...   ...            ...        . . .


fast riff
D|-----------------------------|--5*-------------------------|
A|-----(4x)--------------------|---5*------------------------|
F|-----------------------------|----5*-----------------------|
C|-----------------------------|-----5*----------------------|
G|-----------------------------|------5*---------------------|
C|-1p0-00000-63-00000-35-00000-|--end with after the 4th time|

Chorus riff                Harmony part
D|------------------------|------------|------------|
A|------------------------|------------|------------|
F|------------------------|------------|------------|
C|------------------------|------------|------------|
G|-5h6---3-5-3-0-00-87-45-|---87-78----|-0000000000-|
C|-5h6-0-3-5-3-0-00---0---|-----0------|-0000000000-|


Bridge
D|------------------------------|
A|------------------------------|
F|-----------------------0------|
C|-----1-4-4/5\4-5-----1--------|
G|-----3-5-5/6\5-3-3-3----------|
C|-000--0-0-----0---------------|

 didnt feel liek tabbing out the solo. but MX tabs has the solo tabbed out pretty close...

thats pretty much the whole song......this is almost 100% correct
Comments