Shadows Fall - Inspiration On Demand Chords & Tabs

 

Inspiration On Demand Chords & Tabs

Shadows Fall Chords & Tabs

Version: 1 Type: Tab 0 ratings
1 star 2 stars 3 stars 4 stars 5 stars
comments

Inspiration On Demand Tab

                            INPIRATION ON DEMAND(SOLO)
                           As recorded by Shadows Fall
                 Tabbed By:MetalFreekz(MetalFreekz@hotmail.com)
Please note I am working on a tab for the entire song, but I got the solo almostperfect,
so I figured I might as well post it. The solo is completely insane.

  Gtr I
|-------------------------------------------------|
|-------------------------------------------------|
|-------------------------------------15-17-18-17-|
|-------------------------15-17-18-17-------------|
|-------------15-17-18-17-------------------------|
|-15-17-18-17-------------------------------------|


|-------------------------------------------------|
|-------------------------------------17-19-20-19-|
|-------------------------17-19-20-19-------------|
|-------------17-19-20-19-------------------------|
|-17-19-20-19-------------------------------------|
|-------------------------------------------------|


|-18-------15-17-------15-17-------15-17-------15-|
|----15-17-------15-17-------15-17-------15-17----|
|-------------------------------------------------|
|-------------------------------------------------|
|-------------------------------------------------|
|-------------------------------------------------|


                           ~~~~~
|-17----------------------18b------|
|----18-17-------15-17-18----------|
|----------15-17-------------------|
|----------------------------------|
|----------------------------------|
|----------------------------------|

[ Tab from: http://www.guitartabs.cc/tabs/s/shadows_fall/inspiration_on_demand_tab.html ]
|-------------------------------------------------|
|-------13----13----------13----13----------13----|
|----16----16----16----16----16----16----16----16-|
|-13----------------15----------------15----------|
|-------------------------------------------------|
|-------------------------------------------------|


|-------------------------------------------------|
|-------15----15----------15----15----------15----|
|----18----18----18----18----18----18----18----18-|
|-15----------------17----------------17----------|
|-------------------------------------------------|
|-------------------------------------------------|

|---------------------------------------------|
|-------17----17----------17----17------------|
|----20----20----20----20----20----20----20---|
|-19----------------19----------------19------|
|---------------------------------------------|
|---------------------------------------------|
                                   ~~~~~~
|----------------------------------17b-----|
|-17-------15----------13------------------|
|----20-18----18----------16---------------|
|----------------15-17-------13-15---------|
|------------------------------------------|
|------------------------------------------|


|---------------|---------------|-------|
|---------------|---------------|-------|
|-8--9----------|---------------|-15----|
|-------15--17--|-15--13--------|-------|
|---------------|---------14----|-------|
|---------------|---------------|-------|


|-------------|--------------------|
|-------------|--------------14-13-|
|-16----15----|---------15\--------|
|-------------|-12-12--------------|
|-------------|--------------------|
|-------------|--------------------|

      Wide Vibrato
|----15/\/\/\/\/\----|
|--------------------|
|-14-----------------|
|--------------------|
|--------------------|
|--------------------|
Comments