Shadows Fall - Eternity Is Within Chords & Tabs

 

Eternity Is Within Chords & Tabs

Shadows Fall Chords & Tabs

Version: 1 Type: Bass Tab 0 ratings
1 star 2 stars 3 stars 4 stars 5 stars
comments

Eternity Is Within Bass Tab

   
Eternity Is Within
Shadows Fall
Bassline
Tuning: D G C F
 Intro
  Gtr I
|-----------------|-----------------|-----------------|-----------------|
|-----------------|-----------------|-----------------|-----------------|
|-----------------|-----------------|-----------------|-----------------|
|-2-0-3-0-5-0-3-0-|-1/3-1\0-0-0-0/1-|-2-0-3-0-5-0-3-0-|-1/3-1\0-0-0-0/1-|


                    Verse 1-Riff 1
|----------------||-----------------|----------------|
|----------------||o----------------|----------------|
|----------------||o----------------|----------------|
|-1-0-0-0-0-0----||--0--0-0-0-3\1-0-|-0--0-0-0-3\1-0-|


                             ~~~~~~
                                     4x
|----------------|-------------------||----------------|
|----------------|------------------o||----------------|
|----------------|-5/7-7\5-4/5-(5)--o||----------------|
|-0--0-0-0-3\1-0-|-------------------||-1-0-0-0-0-0----|


   Verse 1-Riff 2
||-----------------|-----------------------|
||o----------------|-----------------------|
||o-----1----------|-----------------------|
||--0-0---0-1/3-4--|-0-0-0-0-0-0-0-0-0-0-0-|


                                        3x
|----------------|-----------------^9---||
|----------------|-----------------^7--o||
|-----1----------|-----------------^0--o||
|-0-0---0-1/3-4--|-0-0-0-0-0-0-0-0------||


|----------------|-----------------------|
|----------------|-----------------------|
|-----1----------|-----------------------|
|-0-0---0-1/3-4--|-0-0-0-0-0-0-0-0-0-0-0-|


|----------------|---------------------|
|----------------|---------------------|
|-----1----------|---------------------|
|-0-0---0-1/3-4--|-0-0-0---0-0-0-0-0-0-|


   Chorus
||----------|------------|----------|--------|
||o---------|------------|----------|--------|
||o-0-------|-(0)--------|-1--------|-(1)----|
||----------|------------|----------|--------|


|-------------------|-------------------|
|-------5---3-------|-------------------|
|-----------------5-|---3---3---3/5-(5)-|
|-0-0-0---0---0-0---|-0---0---0---------|


|-------------------|----------------------||
|-------5---3-------|---------------------o||
|-----------------5-|---3---3---3/5-(5)---o||
|-0-0-0---0---0-0---|-0---0---0------------||


   Guitar Solo 1
                                                                            4x
||------------------|-----------------|-----------------|-------------------||
||o-----------------|-----------------|-----------------|------------------o||
||o-----------------|-----------------|-----------------|------------------o||
||--2-0-3-0-5-0-3-0-|-1/3-1\0-0-0-0/1-|-2-0-3-0-5-0-3-0-|-1/3-1\0-0-0-0/1---||


   Verse 2
||-----------------|-----------------------|
||o----------------|-----------------------|
||o-----1----------|-----------------------|
||--0-0---0-1/3-4--|-0-0-0-0-0-0-0-0-0-0-0-|


                                        3x
|----------------|-----------------^9---||
|----------------|-----------------^7--o||
|-----1----------|-----------------^0--o||
|-0-0---0-1/3-4--|-0-0-0-0-0-0-0-0------||


|----------------|-----------------------|
|----------------|-----------------------|
|-----1----------|-----------------------|
|-0-0---0-1/3-4--|-0-0-0-0-0-0-0-0-0-0-0-|


|----------------|---------------------|
|----------------|---------------------|
|-----1----------|---------------------|
|-0-0---0-1/3-4--|-0-0-0---0-0-0-0-0-0-|


   Chorus
||-----------|------------|----------|--------|
||o----------|------------|----------|--------|
||o-0--------|-(0)--------|-1--------|-(1)----|
||-----------|------------|----------|--------|


|-------------------|-------------------|
|-------5---3-------|-------------------|
|-----------------5-|---3---3---3/5-(5)-|
|-0-0-0---0---0-0---|-0---0---0---------|


|-------------------|----------------------||
|-------5---3-------|---------------------o||
|-----------------5-|---3---3---3/5-(5)---o||
|-0-0-0---0---0-0---|-0---0---0------------||

[ Tab from: http://www.guitartabs.cc/tabs/s/shadows_fall/eternity_is_within_btab.html ]
   Verse 3
                                                                 ~~~~~~
||-----------------|----------------|----------------|--------------------||
||o----------------|----------------|----------------|-------------------o||
||o----------------|----------------|----------------|-5/7-7\5-4/5-(5)---o||
||--0--0-0-0-3\1-0-|-0--0-0-0-3\1-0-|-0--0-0-0-3\1-0-|--------------------||


 Breakdown
|-------------------|-------------------|----------|--------|
|-------------------|-------------------|----------|--------|
|-------------------|-------------------|-3--------|-(3)----|
|-0-0-0-0-0-0-0-0-0-|-0-0-0-0-0-0-0-0-0-|----------|--------|


||--------------------------|---------------------------------|
||o-------------------------|---------------------------------|
||o-------------------------|-5-5-5-5-3-3-3-3-----------------|
||--0-0-0-0-0-0-1-1-1-0-0-0-|-----------------5-5-5-5-3-3-3-3-|


                                                                     3x
|---------------------------------|----------------------------------||
|---------------------------------|---------------------------------o||
|-6-6-6-6-4-4-4-4-----------------|-----------------3-3-3-3-5-5-5-5-o||
|-----------------4-4-4-4-6-6-6-6-|-3-3-3-3-5-5-5-5------------------||


|-------------------|-------------------|-------------------|------------|
|-------------------|-------------------|-------------------|------------|
|-------------------|-------------------|-3--1--------------|----2--1----|
|-0-0-0-0-0-0-1--0--|-3--1--0-0-0-0-0-0-|-------0-0-0-0-0-0-|-3----------|


   Bridge
    Half-Time Feel Q=100
||-----------|-------------|----------|--------|
||o----------|-------------|----------|--------|
||o----------|--------1----|----------|--------|
||--1--------|-(1)---------|-0--------|-(0)----|


                         ~~~
|----------|----------------|----------|---------||
|----------|----------------|----------|--------o||
|----------|-1-0---------1--|----------|--------o||
|-1--------|-----3-0-1-3----|-0--------|-(0)-----||


  Double-Time Q=200
|-----------------|-----------------|-----------------|
|-----------------|-----------------|-----------------|
|-----------------|-----------------|-----------------|
|-2-0-3-0-5-0-3-0-|-1/3-1\0-0-0-0/1-|-2-0-3-0-5-0-3-0-|


|-----------------|------------------|
|-----------------|------------------|
|-----------------|------------------|
|-1/3-1\0-0-0-0/1-|-1-0-0-0-0-0------|


   Guitar Solo 2
||-----------------|-----------------------|
||o----------------|-----------------------|
||o-----1----------|-----------------------|
||--0-0---0-1/3-4--|-0-0-0-0-0-0-0-0-0-0-0-|


|----------------|-----------------^9---||
|----------------|-----------------^7--o||
|-----1----------|-----------------^0--o||
|-0-0---0-1/3-4--|-0-0-0-0-0-0-0-0------||


|----------------|-----------------------|
|----------------|-----------------------|
|-----3----------|-----------------------|
|-2-0---0-3/5-6--|-4-4-4-4-4-4-4-4-4-4-4-|


|----------------|-----------------------|
|----------------|-----------------------|
|-----3----------|-----------------------|
|-2-0---0-3/5-6--|-4-4-4-4-4-4-4-4-4-4-4-|


|----------------|-----------------------|
|----------------|-----------------------|
|-----1----------|-----------------------|
|-0-0---0-1/3-4--|-0-0-0-0-0-0-0-0-0-0-0-|


|----------------|---------------------|
|----------------|---------------------|
|-----1----------|---------------------|
|-0-0---0-1/3-4--|-4-4-4---4-4-4-4-4-4-|


   Outro Chorus
||-----------|------------|----------|--------|
||o----------|------------|----------|--------|
||o-0--------|-(0)--------|-1--------|-(1)----|
||-----------|------------|----------|--------|


|-------------------|-------------------|
|-------5---3-------|-------------------|
|-----------------5-|---3---3---3/5-(5)-|
|-0-0-0---0---0-0---|-0---0---0---------|


|-------------------|----------------------||
|-------5---3-------|---------------------o||
|-----------------5-|---3---3---3/5-(5)---o||
|-0-0-0---0---0-0---|-0---0---0------------||


|-------------------|-------------------|
|-------5---3-------|-------------------|
|-----------------5-|---3---3---3/5-(5)-|
|-0-0-0---0---0-0---|-0---0---0---------|


|-------------------|-------------------|----------------*|
|-------5---3-------|-------------------|----------------*|
|-----------------5-|---3---3---3s5-(5)-|----------------*|
|-0-0-0---0---0-0---|-0---0---0---------|-1-0-0-0-0-0----*|

/-Slide Up
\-Slide Down
p-Pull-Off
h-Hammer-On
b-Bend
br-Bend and Release
(x)-tied note
~-vibrato
Comments