Shadows Fall - Destroyer Of Senses Chords & Tabs

 

Destroyer Of Senses Chords & Tabs

Shadows Fall Chords & Tabs

Version: 1 Type: Bass Tab 0 ratings
1 star 2 stars 3 stars 4 stars 5 stars
comments

Destroyer Of Senses Bass Tab

   
Band - Shadows Fall
Song - Destroyer Of Senses

Tuning: C G C F

Verse
F|-----------------------------|---------------------------|
C|-----------------------------|---------------------------|
G|------------1---5-3----------|------------1---53-----3-5-| x2
C|-0-1-0-5-3-0-3-0---0-3-5-0-6-|-0-1-0-5-3-0-3-0--0-3-5----|


Chorus:
F|---------------------------------------|
C|---------------------------------------|
G|---------------------------------------|
C|-0-6-5-0-0-0-3-5-0-0-0-6-5-0-0-0-1-3-6-|

F|---------------------------|
C|---------------------------|
G|---------------------------|
C|-0-6-5-0-0-0-3-5-0-0-0-6-5-|


Interlude:
F|---------------------|
C|---------------------|
G|---------------------|
C|-0--0--0--0--0-0-0-0-|

Verse
F|-----------------------------|---------------------------|
C|-----------------------------|---------------------------|
G|------------1---5-3----------|------------1---53-----3-5-| x2
C|-0-1-0-5-3-0-3-0---0-3-5-0-6-|-0-1-0-5-3-0-3-0--0-3-5----|

Chorus:
F|---------------------------------------|   |---|
C|---------------------------------------|   |---|
G|---------------------------------------|   |---|
C|-0-6-5-0-0-0-3-5-0-0-0-6-5-0-0-0-1-3-6-|x4 |-0-|

Bridge:
F|-------------------------------------|
C|-------------------------------------|
G|-------------------------------------|
C|-0-0-0--0-0-0--0-0-0--0-0-0--0-0-0-0-|x2

F|-------------------------------------|
C|-------------------------------------|
G|-------------------------------------|
C|-5-3-0--5-3-0--5-3-0--5-3-0--6-6-6-6-|

F|-------------------------------------|
C|-------------------------------------|
G|-------------------------------------|
C|-5-3-0--5-3-0--5-3-0--5-3-0--6----6--|
[ Tab from: http://www.guitartabs.cc/tabs/s/shadows_fall/destroyer_of_senses_btab.html ]
F|-------------------------------------|
C|-------------------------------------|
G|-------------------------------------|
C|-5-3-0--5-3-0--5-3-0--5-3-0--6----6--|

F|-------------------------------------|
C|-------------------------------------|
G|-------------------------------------|
C|-5-3-0--5-3-0--5-3-0--5-3-0--6----1--|

F|-------------------------------------|
C|-------------------------------------|
G|-------------------------------------|
C|-5-3-0--5-3-0--5-3-0--5-3-0--6-6-6-6-|

F|---------------------------------|
C|---------------------------------|
G|---------------------------------|
C|-5-3-0--5-3-0--5-3-0--5-3-0--6\1-|

F|-------------------------------------|
C|-------------------------------------|
G|-------------------------------------|
C|-5-3-0--5-3-0--5-3-0--5-3-0--6----6--|

F|-------------------------------------|
C|-------------------------------------|
G|-------------------------------------|
C|-5-3-0--5-3-0--5-3-0--5-3-0--6----1--|

Solo:
F|---------------|
C|---------------|
G|---------------|
C|-0--0--0-0-0-0-|

F|---------------------------------------|
C|---------------------------------------|
G|---------------------------------------|
C|-0-6-5-0-0-0-3-5-0-0-0-6-5-0-0-0-1-3-6-|

F|---------------------------|
C|---------------------------|
G|---------------------------|
C|-0-6-5-0-0-0-3-5-0-0-0-6-5-|

Verse
F|-----------------------------|---------------------------|
C|-----------------------------|---------------------------|
G|------------1---5-3----------|------------1---53-----3-5-| x2
C|-0-1-0-5-3-0-3-0---0-3-5-0-6-|-0-1-0-5-3-0-3-0--0-3-5----|

Chorus:
F|---------------------------------------|   |---|
C|---------------------------------------|   |---|
G|---------------------------------------|   |---|
C|-0-6-5-0-0-0-3-5-0-0-0-6-5-0-0-0-1-3-6-|x4 |-0-|

Outro
F|--------------------------------------|
C|--------------------------------------|
G|-------5-4-3--------------------------|
C|-0--0--------7-6-5-4--0-6-5-0-0-0-3-5-|

End.
Comments