Shadows - Peace Pipe Chords & Tabs

 

Peace Pipe Chords & Tabs

Shadows Chords & Tabs

Version: 1 Type: Tab 0 ratings
1 star 2 stars 3 stars 4 stars 5 stars
comments

Peace Pipe Tab

#----------------------------------PLEASE NOTE--------------------------------#
#This file is the author's own work and represents their interpretation of the#
#song. You may only use this file for private study, scholarship, or research.#
#-----------------------------------------------------------------------------#
#-- File created with Instab - http://www.pconline.com/~smcarey/instab.html --#
#-----------------------------------------------------------------------------#

Author/Artist: The Shadows
Title: Peace Pipe
Transcribed by: John T
x= muted note
spaces between notes mean nothing!

-17---16---17---5---4---5---------------------------9---12---9--------12------
-----------------------------------------------------------------12--------10-
----------------------------2---1---2-----------------------------------------
------------------------------------------------------------------------------
----------------------------------------0-------0-----------------------------
--------------------------------------------4---------------------------------
                                                                              

------9-----------------------------------------------------------------------
-10-------10---7---10---------------12/--14\--12-----------10/--12\--10-------
------------------------7---9---9------------------7---7------------------9---
------------------------------------------------------------------------------
------------------------------------------------------------------------------
------------------------------------------------------------------------------
                                                                              

-------------|----------------------------------------------------------------
-12---10-----|-----10---8---10---8--------------------------------------------
-----------9-|-9---------------------9---7--------7------------5--------------
-------------|-------------------------------10-------9------------7----------
-------------|--------------------------------------------10-----------8------
-------------|----------------------------------------------------------------
                                                                              

-----------------|-9---12---9--------12-------------9-------------------------
-----------------|--------------12--------10---10-------10---7---10-----------
-4--4--4---------|----------------------------------------------------7-------
-----------6-----|------------------------------------------------------------
---------------7-|------------------------------------------------------------
-----------------|------------------------------------------------------------
                                                                              

-------------------------------------------------------------|----------------
---------12/--14\--12----------10/--12\--10-------12---10----|----------------
-9---9-----------------7---7------------------9-------------9|----------------
-------------------------------------------------------------|----------------
-------------------------------------------------------------|----------------
-------------------------------------------------------------|----------------
                                                                              
[ Tab from: http://www.guitartabs.cc/tabs/s/shadows/peace_pipe_tab.html ]
------------------------------------------------------------------------------
------14x--12x--10x-------14x--12x--10x------14x--12x--10x------14x--12x--10x-
-11------------------11x-----------------10-----------------10x---------------
------------------------------------------------------------------------------
------------------------------------------------------------------------------
------------------------------------------------------------------------------
                                                                              

-----------------------------------------|------------------------------------
-----14x--12x--10x------14x--12x--9x--10x|------------------------------------
--9-----------------9x-------------------|------------------------------------
-----------------------------------------|-----0---0---0---0-------0---4------
-----------------------------------------|-0-------------------4--------------
-----------------------------------------|------------------------------------
                                                                              

---------------------------------------------------------------------------|--
---------------------------------------------------------------------------|--
---------------------------------------------------------------------------|--
-------------------------------------------------------------0-------------|--
-----0---0---0---0-------0---4--------2---2---2---2---1---2------2-------0-|--
-0-------------------4------------0----------------------------------4-----|--
                                                                              

-9---12---9--------12-------------9-------------------------------------------
--------------12--------10---10-------10---7---10----------------12/--14\-\12-
----------------------------------------------------7---9---9-----------------
------------------------------------------------------------------------------
------------------------------------------------------------------------------
------------------------------------------------------------------------------
                                                                              

----------------------------------------|-------------------------------------
----------10/--12\--10-------12---10----|----14x--12x--10x-------14x--12x-10x-
--7---7------------------9-------------9|11-----------------11x---------------
----------------------------------------|-------------------------------------
----------------------------------------|-------------------------------------
----------------------------------------|-------------------------------------
                                                                              

------------------------------------------------------------------------------
------14x--12x--10x-------14x--12x--10x-----14x--12x--10x-----14x-12x-9x-10x--
--10-----------------10x-----------------9-----------------9x-----------------
------------------------------------------------------------------------------
------------------------------------------------------------------------------
------------------------------------------------------------------------------
                                                                              

-------------5---4---5---17---16---17-------14--------------------------------
-------------------------------------------------14---------------------------
-2---1---2--------------------------------------------------------------------
------------------------------------------------------------------------------
----------------------------------------0-------------------------------------
------------------------------------------------------------------------------
                                                                              


#--------------- I got this file from 'Shadows in Plain Text' ----------------#
#--------------- http://www.alphalink.com.au/~whitebox/Shads/ ----------------#


Comments