Shadows - Mustang Chords & Tabs

 

Mustang Chords & Tabs

Shadows Chords & Tabs

Version: 1 Type: Bass Tab

Mustang Bass Tab

Mustang Bassline – The Shadows
Tabbed By Craig Dobson – Member of the “Foot Tappers”
Intro
G|------------------------------------------------------------------|
D|------------------3-2-------------3-2----------------3-2----------|
A|------5-5-3-3-5-5-----5-5-3-3-5-5-------5-5-3-3-5-5---------------|
E|-10\5-------------------------------------------------------------|

                           Verse 1
G|-----------------------|---------------5-3-2----------------------|
D|-----------------------|---4--7--4---3---------2--5--2-----4--7--4|
A|-5-5-3-3---------------|-5-------------------3-----------5--------|
E|-----------5-5-5-5-5-5-|------------------------------------------|


Verse 2
G|---------------5--3--2------------------------|---6--9--6---------|
D|---4--7--4---3------------2--5--2----4--7--4--|-7-----------9-7-6-|
A|-5----------------------3----------5----------|-----------7-------|
E|----------------------------------------------|-------------------|

G|---------------------------5-3-2----------------------------------|
D|---------------4--7--4--3----------5--3--2----4--7--4-----------4-|
A|---2--5--2---5-------------------3----------5-----------5-5-3-3---|
E|-3----------------------------------------------------------------|
[ Tab from: http://www.guitartabs.cc/tabs/s/shadows/mustang_btab.html ]
                               Verse 3
G|-------------------------|----------------------------4-5-4-------|
D|-7--4------------4--7--4-|---------2-3-2----------4-7-------7-4---|
A|------5--5--3--3---------|----2--5-------5--2---5-----------------|
E|-------------------------|--3-------------------------------------|


Verse 1 altered a bit
G|--------------------------------------|-------------5-3-2---------|
D|--------2-3-2--------------4-5-4------|--4--7--4--3---------2--5-2|
A|---2--5-------5-2-----4--7-------7--4-|-5-----------------3-------|
E|-3------------------5-----------------|---------------------------|


Intro
G|----------------------------------|-------------------------------|
D|---4--7--4----2--5-2----4--7--4---|-------------------3-2---------|
A|-5----------3---------5---------5-|------5-5-3-3-5-5--------5-5-3-|
E|----------------------------------|-10\5--------------------------|


G|--------------------------------------------------|---------------|
D|-------3-2--------------3-2-----------------------|---------------|
A|-3-5-5------5-5-3-3-5-5------5-5-3-3--------------|-Verse 1 + 2---|
E|--------------------------------------5-5-5-5-5-5-|---------------|


G|------------------------------------------------------------------|
D|------------------------------------------------------------------|
A|-then—Verse 1 to the end------------------------------------------|
E|------------------------------------------------------------------|