Shadows - Dance On Chords & Tabs

 

Dance On Chords & Tabs

Shadows Chords & Tabs

Version: 1 Type: Tab 0 ratings
1 star 2 stars 3 stars 4 stars 5 stars
comments

Dance On Tab

#----------------------------------PLEASE NOTE---------------------------------#
#This file is the author's own work and represents their interpretation of the #
#song. You may only use this file for private study, scholarship, or research. #
#------------------------------------------------------------------------------##
submitted, but not written, by: 

DANCE ON

This is just the bit that everyone remembers (again ! - One day I must 
learn these all the way through !! - If anyone else has the tab to the 
rest of this I wouldn't mind a copy (please))
[ Tab from: http://www.guitartabs.cc/tabs/s/shadows/dance_on_tab.html ]
E-----------------------------------------------------------------------------
B----------------3---2-(H)-3----------------------------3----2-(H)-3----------
G-----------2------------------4---2---------------2--------------------------
D---2---4------------------------------2---2---4------------------------------
A-----------------------------------------------------------------------------
E-----------------------------------------------------------------------------

E------------------------------------------------------------------------------
B------------5-------5---4---3---2---3-------5---4---3---2---3-----------------
G---4---2--------4-----------------------4-----------------------4---2---1---2-
D------------------------------------------------------------------------------
A------------------------------------------------------------------------------
E------------------------------------------------------------------------------

E----------------------------------------------
B----------------------------------------------
G---4-(SL)-6---4---2---1---2-------------------
D----------------------------------------------
A----------------------------------------------
E----------------------------------------------



Comments