Shadows - Apache Chords & Tabs

 

Apache Chords & Tabs

Shadows Chords & Tabs

Version: 10 Type: Tab 0 ratings
1 star 2 stars 3 stars 4 stars 5 stars
comments

Apache Tab

   
Title: Apache
Artist: The Shadows

Instrument: Guitar

Tabbed by: Guido

Tuning: Standard (E A D G B E)


|-----------5----||
|-------------8-5||\
|--5-7b---5------|| \ X2
|7------7--------|| / 
|----------------||/
|----------------||


|----------------|----------------|----------------|----------------|--||
|----------------|----------------|3---3-----------|----------------|--||
|2---2-----------|2---2----------2|--2---4-2-0-----|2---2-----------|--||
|--2---4-2-0-2--2|--2---4-2-0-2---|------------2--2|--2---4-2-0-2---|-2||
|----------------|----------------|----------------|----------------|--||
|----------------|----------------|----------------|----------------|--||
                            _________        _______
                            | 1              | 2
                            |                |
|----------------|----------|----------------|----------------||
|----------------|----------|----------------|----------------||
|----------------|----------|----------------|----------------||
|--3333--3333--33|33---3333-|-2--------------|-2~~------------||
|3------3-----3--|---3------|---0~~----------|----------------||
|----------------|----------|----------------|----------------||


|----------------|-0--------------|----------------|----------------||
|-----1-0--0-1-3-|---3-1----------|-----1-0--0-1-3-|----------------||
|---2------------|-------2~~------|---2------------|-0~~------------||
|-3--------------|----------------|-3--------------|----------------||
|----------------|----------------|----------------|----------------||
|----------------|----------------|----------------|----------------||

[ Tab from: http://www.guitartabs.cc/tabs/s/shadows/apache_tab_ver_10.html ]
|----------------|-0--------------||
|-----1-0--0-1-3-|---3-1----------||
|---2------------|-------2~~------||
|-3--------------|----------------||
|----------------|----------------||
|----------------|----------------||
                            _________        _______
                            | 1              | 2
                            |                |
|----------------|----------|----------------|----------------||
|----------------|----------|----------------|----------------||
|----------------|----------|----------------|----------------||
|--3333--3333--33|33---3333-|-2--------------|-2~~------------||
|3------3-----3--|---3------|---0~~----------|--------------7-||
|----------------|----------|----------------|----------------||


|----------------|----------------||
|----------------|----------------||\
|----------------|----------------|| \ X2
|-7777---7777----|----------7-----|| / 
|------7------7-9|-9-9-7------7~~-||/
|----------------|-------10-------||

|----------------|------------------||
|----------------|------------------||
|---7777---7777--|------------7-----||
|-7------7------7|-9-9-9-7------7~~-||
|----------------|---------10-------||
|----------------|------------------||

|----------------|----------------||
|----------------|----------------||
|----------------|----------------||
|-7777---7777----|----------7-----|| 
|------7------7-9|-9-9-7------7~~-||
|----------------|-------10-------||

|----------------|-0--------------|----------------|----------------||
|-----1-0--0-1-3-|---3-1----------|-----1-0--0-1-3-|----------------||
|---2------------|-------2~~------|---2------------|-0--00001-01-0--||
|-3--------------|----------------|-3--------------|----------------||
|----------------|----------------|----------------|----------------||
|----------------|----------------|----------------|----------------||

|----------------|-0--------------||
|-----1-0--0-1-3-|---3-1----------||
|---2------------|-------2~~------||
|-3--------------|----------------||
|----------------|----------------||
|----------------|----------------||

|----------------|----------|----------||
|----------------|----------|----------||
|----------------|----------|----------||
|--3333--3333--33|33---3333-|-2--------||
|3------3-----3--|---3------|---0~~----||
|----------------|----------|----------||


|----------------|----------------|--------||
|----------------|----------------|--------||
|----------------|----------------|--------||
|----------------|--------3-3333--|-2~~----||
|--------0-0000--|-3-3333---------|--------||
|-1-1111---------|----------------|--------||

|-----------5----||
|-------------8-5||\
|--5-7b---5------|| \ Fade Out... (4X)
|7------7--------|| / 
|----------------||/
|----------------||
Comments