Shadowcast - Ghostown Chords & Tabs

 

Ghostown Chords & Tabs

Shadowcast Chords & Tabs

Version: 1 Type: Tab 0 ratings
1 star 2 stars 3 stars 4 stars 5 stars
comments

Ghostown Tab

  Ghostown/Shadowcast



 e---------------------------------------------------------------
 B---------------------------------------------------------------
 G---------------------------------------------------------------  Play 5x
 D---4---4---7---7---8---9---9---7---7---5-----------------------
 A---4---4---7---7---8---9---9---7---7---5-----------------------
 E---2---2---5---5---6---7---7---5---5---3-----------------------



 e---------------------------------------------------------------
 B---------------------------------------------------------------
 G---------------------------------------------------------------
 D---4---4---7---7---8---9---9---7---7---7---7---7---7-----------
 A---4---4---7---7---8---9---9---7---7---7---7---7---7-----------
 E---2---2---5---5---6---7---7---5---5---5---5---5---5-----------



 e---------------------------------------------------------------
 B---------------------------------------------------------------
 G---------------------------------------------------------------
 D---9---9---7---7---7---4---4---9---9---9---9---9---7---7---4---
 A---9---9---7---7---7---4---4---9---9---9---9---9---7---7---4---
 E---7---7---5---5---5---2---2---7---7---7---7---7---5---5---2---



 e---------------------------------------------------------------
 B---------------------------------------------------------------
 G---------------------------------------------------------------  Play 6x
 D---4---4---7---7---8---9---9---7---7---5-----------------------
 A---4---4---7---7---8---9---9---7---7---5-----------------------
 E---2---2---5---5---6---7---7---5---5---3-----------------------
 

[ Tab from: http://www.guitartabs.cc/tabs/s/shadowcast/ghostown_tab.html ]
 e-----------------------------------------------------------------
 B-----------2---2---4---5---5---4---4---2-------------------------
 G---3---3---------------------------------------------------------  Play 4x
 D-----------------------------------------------------------------
 A-----------------------------------------------------------------
 E-----------------------------------------------------------------



 e------------------------------------------------------------------
 B------------------------------------------------------------------
 G------------------------------------------------------------------  Play 5x
 D---4---4---7---7---8---9---9---7---7---5--------------------------
 A---4---4---7---7---8---9---9---7---7---5--------------------------
 E---2---2---5---5---6---7---7---5---5---3--------------------------



 -------------------------------------------------------------------
 B------------------------------------------------------------------
 G------------------------------------------------------------------
 D---4---4---7---7---8---9---9---7---7---7---7---7---7--------------
 A---4---4---7---7---8---9---9---7---7---7---7---7---7--------------
 E---2---2---5---5---6---7---7---5---5---5---5---5---5--------------



 e-------------------------------------------------------------------
 B-------------------------------------------------------------------
 G-------------------------------------------------------------------
 D---9---9---7---7---7---4---4---9---9---9---9---9---7---7---4---4---
 A---9---9---7---7---7---4---4---9---9---9---9---9---7---7---4---4---
 E---7---7---5---5---5---2---2---7---7---7---7---7---5---5---2---2---

                              END

 
Comments