Shades Apart - Valentine Chords & Tabs

 

Valentine Chords & Tabs

Shades Apart Chords & Tabs

Version: 3 Type: Tab 0 ratings
1 star 2 stars 3 stars 4 stars 5 stars
comments

Valentine Tab

Artist: Shades Apart
Song: Valentine
Transcribed By: Kimbahp7@aol.com "ChoD0GG"



Shades Apart- "Valentine"

Intro:
E|--8---8-------|--8---8-------|--8---8---8---8----|
B|----9---9-----|----9---9-----|----9---9---9---9--|
G|--------------|--------------|--6----------------|
D|--6-----------|--8-----------|-------------------|
A|--------------|--------------|-------------------|
e|--------------|--------------|-------------------|
Repeat until verse



Verse: There are 2 guitars here. Choose the part you want to play.

Part 1: (distortion)
E|------------|-------------|---------------------|
B|------------|-------------|---------------------|
G|------5-----|------5------|------5---5---5------|
D|----6---6---|----6---6----|----6---6---6---6----|
A|------------|-------------|--4------------------|
e|--4---------|--6----------|---------------------|


Part 2: Exact same as intro, but low distortion.

[ Tab from: http://www.guitartabs.cc/tabs/s/shades_apart/valentine_tab_ver_3.html ]
Pre-Chorus: "The sun is shining somewhere..."
ALL PALM-MUTED!
Listen to the song for the exact beat
E|-----|-----|-----|
B|-----|-----|-----|
G|-----|-----|--3--|
D|--4--|--3--|--3--|
A|--4--|--3--|--1--|
e|--2--|--1--|-----|


Chorus: "Valentine, say the line..."
Each power chord is right before he says something
E|-----|-----|-----|
B|-----|-----|-----|
G|-----|-----|--6--|
D|--6--|--8--|--6--|
A|--6--|--8--|--4--|
e|--4--|--6--|-----|


Solo (I skipped some beats. Add the extra notes in where needed)
|---------------------------------------------------|
|--------------4------------------------------------|
|--5--5--5--6-----5--------5----------5---5---5-----|
|--------------------6--6-----6-----6---6---6---6---|
|---------------------------------------------------|
|---------------------------------------------------|
Repeat once

|--8--8--8--9--11--8----------8---8---8---------|
|-------------------------9-----9---9---9---9---|
|-----------------------------------------------|
|-----------------------------------------------|
|-----------------------------------------------|
|-----------------------------------------------|
Repeat once


Bridge: (He repeats, "Just leave it all behind")
|---8----8-9------|
|------9------9---|
|-----------------|
|-----------------|
|-----------------|
|-----------------|
Repeat many times
Comments