Shades Apart - Valentine Chords & Tabs

 

Valentine Chords & Tabs

Shades Apart Chords & Tabs

Version: 1 Type: Tab 1 rating
1 star 2 stars 3 stars 4 stars 5 stars
comments

Valentine Tab

This is the whole thing its very easy..
I'll get on the solo as soon as i can

Beginning and verse (sometimes she fades away...)
E---------------------------------------------------
B----------------------------------------------------
G--------6------ 8-------------------------------------
D----------------------------8--------------------------
A----------8---8------8----------8---8---8-------------------
E--------9---9-----9---9-------9---9---9---9--------------------

Bridge (palm muted unless it has a * over it)..The sun is shining 
somewhere....
E-------------------------------------------
B----------------------------------------------
G-------------*---------------*---------------*--
D---4--4--4---4-----3--3--3---3-----8--8--8---8------------
A---4--4--4---4-----3--3--3---3-----8--8--8---8-----------
E---2--2--2---2-----1--1--1---1-----6--6--6---6-------------
                                    (    2x    )  

Bridge (continued) (if we just pack our bags..)
E-------------------------------------------
B-------------------------------------------
G------------*----------------*----------------*---------------*--
D--4--4--4---4------3--3--3---3------8--8--8---8---10--10--10--10-
A--4--4--4---4------3--3--3---3------8--8--8---8---10--10--10--10--
E--2--2--4---2------1--1--1---1------6--6--6---6---8---8---8---8----
[ Tab from: http://www.guitartabs.cc/tabs/s/shades_apart/valentine_tab.html ]
Chorus (Repeat throughout all choruses)(Valentine...Say The Line..)
E-----------------------------------------
B-----------------------------------------
G----------------------6(x12)-------------------
D--8--8------3--3------6(x12)------------------
A--8--8------3--3------4(x12)-----------------------
E--6--6------1--1-----------------------------
Listen to the song and figure out the timing for the x12s..its easy

Ending (We can just leave it all behind...blah blah..)
E-----------------------------------------------------
B------------------------------------------------------
G-----------------------------------------------------
D----------------------------------------------------
A----8------8-----------------------------------------------
E--9---9--8--------------------------------------------
Repeat this small riff until the last 2 power Chorrd before he sings
"Valentine" which are
E--------------------------------------------
B--------------------------------------------
G--------------------------------------------
D-----8---8------------------------------------
A-----8---8------------------------------------
E-----6---6------------------------------------

Beautiful...Any questions blah blah Email to BronxBomberzNYY@aol.com
I'll be back with corrections and more tabs in the near future
and be patient ill have the solo soon enough.
                                     
Comments