Shades Apart - Stranger By The Day Chords & Tabs

 

Stranger By The Day Chords & Tabs

Shades Apart Chords & Tabs

Version: 1 Type: Tab 1 rating
1 star 2 stars 3 stars 4 stars 5 stars
comments

Stranger By The Day Tab

   
Song: Stranger By The Day (Complete)
Artist: Shades Apart
Album: Eyewitness

Tabbed by: Michael M. Ruta (michaelmruta@yahoo.com)

April 8, 2005
"Hello sa mga kaibigan ko, lalo na kay Paulo D.V. Muga, sa mga taga-HRSK at sa Quezaltcoatl."
For any comments: see me online with yahoo messenger.

A 5776xx
Em x254xx
C x355xx
D 0577xx
E x799xx
G 3554xx

Tuning: Standard

Intro/Chorus (Distortion)
e--------------------------------|----------------------------------|    e------------|
B--------------------------------|----------------------------------|    B------------|
G--------------------------------|----------------------------------|    G------------|
D--5-5--5\12-12--12/10-10-10/12--|--5-5--5\12-12--12/10-10-10/12-12-|    D--7---------|
A--3-3--3\10-10--10/8--8--8/10---|--3-3--3\10-10--10/8--8--8/10--10-|    A--7---7\9-7-|
E--------------------------------|----------------------------------| x2 E--5---5\7-5-|

2nd Guitar (Chorus)
e---9----|
B-10-10--|
G--------|
D--------|
A--------|
E--------| (x4)

Verse 1,2 and 3 (Distortion)
D-G-C-Em-A-D-E x2

Chorus: (no 2nd Guitar)

Verse 2 (Distortion) (Do Verse)

[Repeat Chorus](no 2nd Guitar)
[ Tab from: http://www.guitartabs.cc/tabs/s/shades_apart/stranger_by_the_day_tab.html ]
Solo (Distortion) 
Do Chorus for 2nd Guitar
e------------------------------------------------------------------|
B-----------6\8-6^-6-5------------------5h6-5~5h6p5-8---5-6-5------|
G-----4-5-7------------7-5-4~-----4-5-7---------------7-------5----|
D-5-7-------------------------5-7-------------------------------7--|
A------------------------------------------------------------------|
E------------------------------------------------------------------|

e-8-7--------------5-4---4-----4-5-7-8-7-5---5-3-0-3-----|
B-5---8-6~-6p5-6^5-----5-------------------8---------5~--|
G--------------------------5-4^--------------------------|
D--------------------------------------------------------|
A--------------------------------------------------------|
E--------------------------------------------------------|

Verse 3 (Clean) (Do Verse x1)

e-------------5^--|
B-----------------|
G-------5^--5-----|
D-7-5-7---7-------|
A-7-7-------------|
E-----------------|

(Distortion) (Do Verse x1)

e------------|
B------------|
G-2----4-----|
D-3----5-----|
A-3----5-----|
E-1----3-----| then pause

Outro: Chorus

2nd Guitar (Chorus)
e------------------| 
B------------------| 
G---10-9-10-12\14--| Do after each line.
D------------------| 
A------------------| (Low Volume - Chorus with Distortion)
E------------------| (x3)

2nd Guitar (Chorus)
e---9----|
B-10-10--|
G--------|
D--------|
A--------| (Chorus)
E--------| (x4)

(Clean)
e-----------3-1-----1---3-1------------------------------------------|
B-----0-1-3---------3-3-----3-1-0---------1--1--1-0h1p0--------------|
G-0-2-------------2-----------------1--2-4---2-2--------2-0-------2--|
D---------------0-------------------2-2-2---2---------------2p0---2--|
A-----------------------------------2------0--------------------0-0--|
E----------------------------------0---------------------------------|

That's it.
Comments