Shades Apart - Sputnik Chords & Tabs

 

Sputnik Chords & Tabs

Shades Apart Chords & Tabs

Version: 1 Type: Tab 0 ratings
1 star 2 stars 3 stars 4 stars 5 stars
comments

Sputnik Tab

Artist: Shades Apart
Song: (Sputnik Watching Over You)
Album: Eyewitness
tabbed by:  Moat (Srcx8@aol.com)

intro- (listen to the song for beat and how many times u repeat)
e|---------------------------------------------------------------
B|----------8----------------------------------------------------
G|-8-7-8-7-8--7-8-10-7-8-----------------------------------------
D|--8-8-8----8------8--------------------------------------------
A|---------------------------------------------------------------
E|---------------------------------------------------------------
[ Tab from: http://www.guitartabs.cc/tabs/s/shades_apart/sputnik_tab.html ]
verse-(stroke down up and then mute the strings)the numbers in 
parenthesis are kinda palm muted and if u listen to the song they
are there but hard to hear u can play it without them if u want
e|---------------------------------------------------------------
B|---------------------------------------------------------------
G|--------(10-10)----------------------(10-10)-------------------
D|-8-8-(88)------(88)-----------8-8-(88)-----(88)---0-1---0-1----
A|-6-6----------------5-5--3-3--6-6----------------1-----1-------
E|--------------------3-3--1-1--------------------3-----1--------

Chorus-(palm muted until last one its like semi palm muted
i dont kno just listen to the song and you'll know what i mean)
e|---------------------------------------------------------------
B|---------------------------------------------------------------
G|---------------------------------------------------------------
D|--5-(x8)-------------------------------------------------------
A|--3-(x8)-5-(x4)-/--8-(x4)--------------------------------------
E|---------3-(x4)-/--6-(x4)--------------------------------------
repeat that a few times until it goes back into what i tabbed as the 
intro. then it goes into the verse again..sorry i dont kno the solo's
and this is my first tab but its just about perfect..questions comments
u can mail me at Srcx8@aol.com..(please no junk mail) ok 
later
                                        -Moat

Comments