Shaden - Dunia Belum Berakhir Chords & Tabs

 

Dunia Belum Berakhir Chords & Tabs

Shaden Chords & Tabs

Version: 1 Type: Chords 0 ratings
1 star 2 stars 3 stars 4 stars 5 stars
comments

Dunia Belum Berakhir Chords

   
Subject :Dunia belum berakhir.
Artis   :Shaden.
Written :Hamad(ibanez_killer)


This song is Indonesia's.I love this song.I can,t write down the lyrics because I don't figure it yet.So sorry.....


Intro:
                   D     
Dunia belum berakhir......
                  Bm
Bila kau putuskan aku
                   G              A
Masih banyak teman-teman ku di sini
           D         
Menemani ku..

Verse:
(the chord are the same.i can't figure the lyrics yet.so sorry.)

D,Bm,G,A,D

Chorus:
G
 Ku fikir-fikir,ku fikir-fikir
D*
 Lebih baik aku menyingkir
G
 Ku fikir-fikir,ku fikir-fikir
    A-G-F# A-G-F# A-G-F#-A
Lelah............oh.....oh

Verse again:
(Same chord but lryric are not the same)

D,Bm,G,A,D

Repeat Chorus:

G,D*,G,A-G-F# A-G-F# A-G-F#
[ Tab from: http://www.guitartabs.cc/tabs/s/shaden/dunia_belum_berakhir_crd.html ]
Bridge:
G                      D
Andai kau tahu...apa yang ku rasakan
G                        A-G-F# A-G-F# A-G-F#-A
Andai kau mahu...mengerti.............oh.....oh

Verse again:
(Same chord but lryric are not the same)

D,Bm,G,A,D

Then...its solo

Second guitar play this chord:

D,Bm,G,A,D

First guitar are playing the tabs:
  D,Bm,G,A,D
e:------------------------------------------------------------:
B:---------------------------------------------10^^-8-7-------:
G:--7~~~~~~7-11-9-7-6~~-6--6-6--6-6-11-9-6-7~~~--------9-7~~~~:
D:------------------------------------------------------------:
A:------------------------------------------------------------:
E:------------------------------------------------------------:
  D,Bm,G,A,D
e:--------------------------------------------------------10~~:
B:---------------------------------------------10^^-8-7-------:
G:--7~~~~~~7-11-9-7-6~~-6--6-6--6-6-11-9-6-7~~~--------9------:
D:------------------------------------------------------------:
A:------------------------------------------------------------:
E:------------------------------------------------------------:

Chords reference:
D :xx0232
D*:x57775
Bm:x24432
G :355433
A :577655
F#:244322
Thats it!Pretty easy huh?Any complain,you can email me Hamad(ibanez_killer) at
alot_problem@yahoo.com

RADIOHEAD ROCKS!!!!!

Comments