Sexton Martin - Over My Head Chords & Tabs

 

Over My Head Chords & Tabs

Sexton Martin Chords & Tabs

Version: 1 Type: Tab 0 ratings
1 star 2 stars 3 stars 4 stars 5 stars
comments

Over My Head Tab

Okay, I looked all over the place for a tab for this song, and could not find it.  So here we go:

“Over My Head”
Martin Sexton

Tuning: DADGAD......I am 98% sure this is the right tuning...if not, you can play with it and try to get it right, but this is how I play it.


Martin plays a bunch of ad-lib stuff in between all the notes, and I haven’t figured them out yet.  It’s a lot of off-beat hits on the high strings and such, but here is the basic riffs:

[ Tab from: http://www.guitartabs.cc/tabs/s/sexton_martin/over_my_head_tab.html ]
Intro:
        
D----h4-h4p2p0-------------------0------------0----------------2h4p2p0----------------------0-------------0
A----------------------------------------------------------------------------------------------0-------4^-- 0 
G-------------------2-------------------------------------------------------2---------------------0-----------
D---------------------------5-----------5-5-----------------------------------------5------------------------
A----------------------------------------------------------0--------------------------------------------------
D-----------------------4-------5-------5-5---------5\-----0---------------------4-------5-------------------


D---------2h4p2p0--------------------7-------------7p0-------
A------------------------------------------------------------------
G----------------------2-------------------------------------------
D-------------------------------5----------------------------------
A----0-------------------------------------------------------------
D----0---------------------4--------5----------5-5------------5\


D-----------2h4p2p0--------------------------0------------------------------------------------
A-----------------------------------------------0--------------------------------------------
G------------------------2-------------------------------------------------------------------------
D-----------------------------------5---------------------------------------------------------------
A----0-----------------------------------------------------------------------------------------------
D----0-------------------------4---------5-----------5----------7h9—7h9\------------------
Comments