Sex Pistols - Silly Thing Chords & Tabs

 

Silly Thing Chords & Tabs

Sex Pistols Chords & Tabs

Version: 1 Type: Tab 0 ratings
1 star 2 stars 3 stars 4 stars 5 stars
comments

Silly Thing Tab

   
Silly Thing 
Sex Pistols
From the 2002 best of...
(Although there are many other versions)


Intro
D C# B A (X2)


Verse
D5                       C#5
What you see, you can get
B5                         C#5
Nothings free, nothing said
D5                          C#5
Don't be fooled by the signs
B5                             C#5
Don't read in between the lines
G5		  A5
What you gonna say? 
G5                      A5
What you gonna do?
G5                            F#5
Now you missed out once again
G5                       A5
But I thought you knew


Chorus
D5         C#5   B5
Oh you silly thing
B5                            A5        D5
You really gone and done it now
D5         C#5   B5
Oh you silly thing
B5                            A5        D5
You really gone and done it now


Verse 2
Trouble here, trouble there, 
People stop, just to stare.
Whats the use of wastin time, 
Just move on leave em all behind.
What you gonna say? 
What you gonna do?
Now youve missed out once again,
But I thought you knew.


Repeat Chorus


Bridge
B5
Can you ever defend, 
A5		  F#5
Oh someone you call a friend
B5
When you see them makin eyes, 
A5			     
You dont even ask em why, you dont even ask em why.


Intro

Verse chords and solo

SOLO
[ Tab from: http://www.guitartabs.cc/tabs/s/sex_pistols/silly_thing_tab.html ]
Solo:                                                   
--3--3-----3--3-----3--3--|--5--5-----5--5-----5--5--|
--3--3--3--3--3--3--3--3--|--5--5--5--5--5--5--5--5--|
--------------------------|--------------------------|
--------------------------|--------------------------|
--------------------------|--------------------------|
--------------------------|--------------------------|
                                                      
--3--3-----3--3-----3--3--|--5--5-----5--5-----5--5--|
--3--3--3--3--3--3--3--3--|--5--5--5--5--5--5--5--5--|
--------------------------|--------------------------|
--------------------------|--------------------------|
--------------------------|--------------------------|
--------------------------|--------------------------|
                                                      
--3--3-----3--3-----3--3--|--2--2-----2--2-----2--2--|
--3--3--3--3--3--3--3--3--|--2--2--2--2--2--2--2--2--|
--------------------------|--------------------------|
--------------------------|--------------------------|
--------------------------|--------------------------|
--------------------------|--------------------------|
                                                      
--3--3-----3--3-----3--3--|--5--5-----5--5-----5--5--|
--3--3--3--3--3--3--3--3--|--5--5--5--5--5--5--5--5--|
--------------------------|--------------------------|
--------------------------|--------------------------|
--------------------------|--------------------------|
--------------------------|--------------------------|
                                                      
--5--5-----5--5-----5--5--|--5--5-----5--5-----5--5--|
--5--5--5--5--5--5--5--5--|--5--5--5--5--5--5--5--5--|
--------------------------|--------------------------|
--------------------------|--------------------------|
--------------------------|--------------------------|
--------------------------|--------------------------|

                                                                  
-----5--5-----5--5--5--5--|
--5--5--5--5--5--5--5--5--|
--------------------------|    BEND LAST NOTE!
--------------------------|
--------------------------|
--------------------------|



Repeat Chorus twice
Comments