Sex Pistols - Pretty Vacant Chords & Tabs

 

Pretty Vacant Chords & Tabs

Sex Pistols Chords & Tabs

Version: 5 Type: Tab 0 ratings
1 star 2 stars 3 stars 4 stars 5 stars
comments

Pretty Vacant Tab

intro
--------------------
--------------------
--------------------
--------------------  X16
0-0-12-12-0-0-------
--------------12-12-

verse
------------------------------------------------
------------------------------------------------
------------------------7-7---------------------
7-7---7-7---7-7--5-5-5--7-7--7--5-5-5-5-2-2-2-2-repeat as many timesnecessary
7-7---7-7---7-7--5-5-5--5-5--7--5-5-5-5-2-2-2-2-
5-5---5-5---5-5--3-3-3-------5--3-3-3-3-0-0-0-0-
[ Tab from: http://www.guitartabs.cc/tabs/s/sex_pistols/pretty_vacant_tab_ver_5.html ]
chorus:
--------------------------------------
--------------------------------------
7-7-7-7-7-5-5-5-5-5-5-----------------
7-7-7-7-7-5-5-5-5-5-5-7-7-7-7-7-7-7-7- repeat as many times as necessary
5-5-5-5-5-3-3-3-3-3-3-7-7-7-7-7-7-7-7-
----------------------5-5-5-5-5-5-5-5-

after the chorus, play this
------------------
------------------
----------------7-
5-5-5-5-5-5-5-5-7-
5-5-5-5-5-5-5-5-5-
3-3-3-3-3-3-3-3---

there you go, if theres anything worn, email me at theckyguy502@aol.com
Comments