Sex Pistols - Im Not Your Stepping Stone Chords & Tabs

 

Im Not Your Stepping Stone Chords & Tabs

Sex Pistols Chords & Tabs

Version: 2 Type: Bass Tab 0 ratings
1 star 2 stars 3 stars 4 stars 5 stars
comments

Im Not Your Stepping Stone Bass Tab

intro:                              X4
||---------------------------------|
||---------------------------------|
||-----------------6-6-6-6-9-9-9-9-|
||-5-5-5-5-8-8-8-8-----------------|
                         X2
||----------------------|
||----------------------|
||----------------------|
||-7-7--5-5--4-4-33-3-3-|

verse: X4
||---------------------------------|
||---------------------------------|
||-----------------6-6-6-6-9-9-9-9-|
||-5-5-5-5-8-8-8-8-----------------|

||----------------------|
||----------------------|
||----------------------|
||-7-7--5-5--4-4-33-3-3-|
[ Tab from: http://www.guitartabs.cc/tabs/s/sex_pistols/im_not_your_stepping_stone_btab_ver_2.html ]
Comments