Sex Pistols - God Save The Queen Chords & Tabs

 

God Save The Queen Chords & Tabs

Sex Pistols Chords & Tabs

Version: 7 Type: Tab 0 ratings
1 star 2 stars 3 stars 4 stars 5 stars
comments

God Save The Queen Tab

Band: Sex Pistols
Song: God Save The Queen
Album: Never Mind The Bollocks...Here's The Sex Pistols!

This is my first tab and I think its about 80% correct,
it sound good and plays well. It comes off the best punk album ever recorded.

Here Goes,

Intro

e----------------------------------------------------------
B----------------------------------------------------------
G----------------------------------------------------------
D--13/14-14-14--14-14-14---13/14-14-14---13/14-14-14-------
A--11/12-12-12--14-14-14---11/12-12-12---11/12-12-12-------
E----------------------------------------------------------
[ Tab from: http://www.guitartabs.cc/tabs/s/sex_pistols/god_save_the_queen_tab_ver_7.html ]
e---------------------------
B---------------------------
G---------------------------
D--13/14-14-14--14-14-14----
A--11/12-12-12--12-12-12----
E---------------------------


Verse

e-------------------
B------3-3-----3----
G--2~--2-2-----2----
D--2~--0-0-----0----
A--0~-------4-------
E-------------------


e-------------------------------------
B------------------------3-3-----3----
G--2-2-2-2-2-2-2-2-2-2---2-2-----2----
D--2-2-2-2-2-2-2-2-2-2---0-0-----0----
A--0-0-0-0-0-0-0-0-0-0--------4-------
E-------------------------------------


Solo

e--2-2-2-------2-2-------------4-4-5h4---2----
B--2-2-2-------2-2-------------4-4-4-----2----
G----------4b-------4b--4--0---4-4-4----------
D---------------------------------------------
A---------------------------------------------
E---------------------------------------------


That's it.

If anyone has the tabs for submission, substitute or no feelings
can you e-mail me : mattb1987@wowmail.com.
Comments