Sex Pistols - God Save The Queen Chords & Tabs

 

God Save The Queen Chords & Tabs

Sex Pistols Chords & Tabs

Version: 4 Type: Tab 0 ratings
1 star 2 stars 3 stars 4 stars 5 stars
comments

God Save The Queen Tab

   
#----------------------------------PLEASE NOTE---------------------------------#
#This file is the author's own work and represents their interpretation of the #
#song. You may only use this file for private study, scholarship, or research. #
#------------------------------------------------------------------------------#

God Save the Queen - By the Sex Pistols

Intro 
||----------------------------------||--------------------------------|
||----------------------------------||--------------------------------|
||*--------------------------------*||--------------------------------|
||*--13/14--14--14-----14--14--14--*||--13/14--14--14--13/14--14--14--|
||---11/12--12--12-----12--12--12---||--11/12--12--12--11/12--12--12--|
||----------------------------------||--------------------------------|



|------------------------------|
|------------------------------|
|------------------------------|
|13/14--14--14-----14--14--14--|
|11/12--12--12-----12--12--12--|
|------------------------------|

[ Tab from: http://www.guitartabs.cc/tabs/s/sex_pistols/god_save_the_queen_tab_ver_4.html ]
Pre-Verse Riff
3x
||-------------------------||-------------------------------------||
||---------3--3-----3------||-------------------------------------||
||*--2~~~--2--2-----2--0--*||--1/2--2--2--2--2--1/2--2--2--2--2--*||
||*--2~~~--0--0-----0--0--*||--1/2--2--2--2--2--1/2--2--2--2--2--*||
||---0~~~--------4---------||--0/0--0--0--0--0--0/0--0--0--0--0---||
||-------------------------||-------------------------------------|| 




Verse (palm mute A5's) 4x
||------------------------------------------||
||-------------------------3--3-----3-------||
||*---2--2--2--2--2--2--2--2--2-----2--0---*||
||*---2--2--2--2--2--2--2--0--0-----0--0---*||
||----0--0--0--0--0--0--0--------4----------||
||------------------------------------------||


Solo (played over F#5 and B5) 
3x 
|--2--||-------2--2---------------------------------------2---||
|--2--||-------2--2-------------------4--4--5h4--5h4------2---||
|-----||*--4b--------4b--(4)--(0)-----4--4--4----4----x------*||
|-----||*--------------------------4--4--4--4----4----x------*||
|-----||------------------------------------------------------||
|-----||------------------------------------------------------||


brought to you by :Carrey G. & Jane G.
Comments